Song name
# A B C D E F G H I J K L M N O P Q R S T U V W X Y Z

Blessthefall - Promised Ones tab

PROMISED ONES - Blessthefall
Tabbed by: nschenone
Email: nschenone@aol.com

Tuning: Drop D

3x

e|---------------------------------------------------------------------------|
B|---------------------------------------------------------------------------|
G|---------------------------------------------------------------------------|
D|-6-6--6-6--6-6---2--4--6--7--4-4--6--7--4--4-4--4h6------------------------|
A|---------------4-----------------------------------------------------------|
D|---------------------------------------------------------------------------|

1x

e|---------------------------------------------------------------------------|
B|---------------------------------------------------------------------------|
G|---------------------------------------------------------------------------|
D|-6-6--6-6--6-6---2--4--6--7--4-4--6--7--4--4-4--4h6-/7-/9------------------|
A|---------------4-----------------------------------------------------------|
D|---------------------------------------------------------------------------|


*not sure about this part
1x

e|---------------------------------------------------------------------------|
B|---------------------------------------------------------------------------|
G|---------------------------------------------------------------------------|
D|-14-13-11----------14-13---------------------------------------------------|
A|----------14-12-11---------------------------------------------------------|
D|---------------------------------------------------------------------------|
   *  *  *  *  *  *  *  *


************************************

| *   palm mute
| /   slide up
| \   slide down
| h   hammer-on
| p   pull-off
| ~   vibrato
| +   harmonic
| x   Mute note
| b   Bend
| pb  Pre-bend
| br  Bend release
| pbr Pre-bend release
| brb Bend release bend

************************************
Tap to rate this tab
# A B C D E F G H I J K L M N O P Q R S T U V W X Y Z