Song name
# A B C D E F G H I J K L M N O P Q R S T U V W X Y Z

Blessthefall - Till The Death Of Me tab

-------------------------------------------------------------------------------
                             SONG NAME - Band Name
-------------------------------------------------------------------------------
Tabbed by:Iplayprsguitars
Email:Iplayprsguitar@gmail.com

Tuning:Drop D

e|---------------------------------------------------------15b17r15-15p13h15-|
B|------10/15~----18-17------------15-----------18-17------------------------|
G|--------------------------17----------14--------------17-------------------|
D|-12------------------------------------------------------------------------|
A|---------------------------------------------------------------------------|
E|---------------------------------------------------------------------------|

e|-15b17r15--15p13-----------------------------------------------------------|
B|---------------------18-17-----------------------10/15~----18-17-----------|
G|------------------------------17/19----------------------------------------|
D|----------------------------------------12---------------------------------|
A|---------------------------------------------------------------------------|
E|---------------------------------------------------------------------------|


e|------------------------------------15b17r15--15p13h15--15b17r15--15p13----|
B|-------15-----------18-17--------------------------------------------------|
G|--17--------14--------------17---------------------------------------------|
D|---------------------------------------------------------------------------|
A|---------------------------------------------------------------------------|
E|---------------------------------------------------------------------------|
the only difficult part is here, sweeping and tapping.

e|-----------------------------------------------13t18t13--------------------|
B|-18-17----------------------------15t18----15-----------15t18--------------|
G|---------17/19----------------14--------14---------------------14----------|
D|----------------19\17-----15---------------------------------------15------|
A|---------------------------------------------------------------------------|
E|---------------------------------------------------------------------------|


e|-------------------------------------------------------15b17r15---15p13h15-|
B|--------10/15~----18-17--------15----------18-17---------------------------|
G|--------------------------17--------14------------17-----------------------|
D|--12-----------------------------------------------------------------------|
A|---------------------------------------------------------------------------|
E|---------------------------------------------------------------------------|


e|---15b17r15--15p13---------------------------------------------------------|
B|----------------------18----20pb-------------------------------------------|
G|---------------------------------------------------------------------------|
D|---------------------------------------------------------------------------|
A|---------------------------------------------------------------------------|
E|---------------------------------------------------------------------------|

I'm 99% sure that this is 100% correct.

Enjoy:)


************************************

| /   slide up
| \   slide down
| h   hammer-on
| p   pull-off
| ~   vibrato
| +   harmonic
| x   Mute note
| b   Bend
| pb  Pre-bend
| br  Bend release
| pbr Pre-bend release
| brb Bend release bend

************************************
Tap to rate this tab
 
# A B C D E F G H I J K L M N O P Q R S T U V W X Y Z