Song name
# A B C D E F G H I J K L M N O P Q R S T U V W X Y Z

Blessthefall - Last Ones Left tab

-----------------------------------------------------------------------------
                       Blessthefall - Last Ones Left
-----------------------------------------------------------------------------
Tabbed by:Metalcoreking
Email:Matthessell@live.com

Tuning:DADGBE

INTRO
E|--------------------------------------------------------------------------|
B|--------------------------------------------------------------------------|
G|-1010101010101010101012121212/141414141417171717\141414-------------------|
D|-x-x-x-x-x-x-x-x-x-x-x-x-x-x---x-x-x-x-x-x-x-x-x-x-x-x--------------------|
A|-8-8-8-8-8-8-8-8-8-8-10101010/121212121215151515\121212-------------------|
D|--------------------------------------------------------------------------|
 |                                                                          |
E|----------------------------------------------------------------------(x2)|
B|--------------------------------------------------------------------------|
G|-101212121212101010101212121212121212121212121212-------------------------|
D|-x-x-x-x-x-x-x-x-x-x-x-x-x-x-x-x-x-x-x-x-x-x-x-x--------------------------|
A|-8-10101010108-8-8-8/1010101010101010101010101010-------------------------|
D|--------------------------------------------------------------------------|

VERSE
E|----------------------------------------------------------------------(x3)|
B|---------10---------10----------------------------------------------------|
G|--------------------------------------------------------------------------|
D|---------------------------------------------000000-0h5h8-0h3h8-----------|
A|-000-000----000-000----000--10\--000000-0-0-------------------------------|
D|-000-000----000-000----000--10\--000000-0-0-------------------------------|
 | xxx xxx    xxx xxx    xxx  x    xxxxxx x x                               |
E|--------------------------------------------------------------------------|
B|--------------------------------------------------------------------------|
G|--------------------------------------------------------------------------|
D|--------------------------------------------------------------------------|
A|-000-000----000-000----000000--0-0--000000-0-0-0000000--------------------|
D|-000-000----000-000----000000--0-0--000000-0-0-0000000--------------------|
 | xxx xxx    xxx xxx    xxxxxx  x x  xxxxxx x x xxxxxxx                    |
E|--------------------------------------------------------------------------|
B|--------------------------------------------------------------------------|
G|--------------------------------------------------------------------------|
D|-----------------------------------------5--------------------------------|
A|-8888888888888888-5-5-5-5-5-5-5-5-55555555--------------------------------|
D|-8888888888888888-5-5-5-5-5-5-5-5-55555555--------------------------------|
   xxxxxxxxxxxxxxxx x x x x x x x x xxxxxxxx

CHORUS
E|--------------------------------------------------------------------------|
B|--------------------------------------------------------------------------|
G|-1010101010101010101012121212/141414141417171717\141414-------------------|
D|-x-x-x-x-x-x-x-x-x-x-x-x-x-x---x-x-x-x-x-x-x-x-x-x-x-x--------------------|
A|-8-8-8-8-8-8-8-8-8-8-10101010/121212121215151515\121212-------------------|
D|--------------------------------------------------------------------------|
 |                                                                          |
E|----------------------------------------------------------------------(x2)|
B|--------------------------------------------------------------------------|
G|-101212121212101010101212121212121212121212121212-------------------------|
D|-x-x-x-x-x-x-x-x-x-x-x-x-x-x-x-x-x-x-x-x-x-x-x-x--------------------------|
A|-8-10101010108-8-8-8/1010101010101010101010101010-------------------------|
D|--------------------------------------------------------------------------|


BREAKDOWN
E|--------------------------------------------------------------------------|
B|--------------------------------------------------------------------------|
G|--------------------------------------------------------------------------|
D|--------------------------------------------------------------------------|
A|-000-0-000-000-000-000-0-000-000-0-000-000-0000---------------------------|
D|-000-0-000-000-000-000-0-000-000-0-000-000-0000---------------------------|
 | xxx x xxx xxx xxx xxx x xxx xxx x xxx xxx xxxx                           |
E|--------(1st)|----(2nd)|--------(3rd)|----(4th)|--------(5th)|-------(6th)|
B|-------------|---------|-------------|---------|-------------|------------|
G|-------------|---------|-------------|---------|-------------|------------|
D|-0h5h8-0h3h8-|---7b+---|-0h5h8-0h3h8-|---8\----|-0h5h8-0h3h8-|------------|
A|-------------|---------|-------------|---8\----|-------------|---000000---|
D|-------------|---------|-------------|---8\----|-------------|---000000---|
                                                                   xxxxxx

E|--------------------------------------------------------------------------|
B|--------------------------------------------------------------------------|
G|-10-1012-12-14-14/15\14/15-101010101010101-1212121212121212---------------|
D|-x--x-x--x--x--x--x--x--x--x-x-x-x-x-x-x-x-x-x-x-x-x-x-x-x----------------|
A|-8--8/10-10/12-12/13\12/13-8-8-8-8-8-8-8-8-1010101010101010---------------|
D|--------------------------------------------------------------------------|

CHORUS

OUTRO
E|--------------------------------------------------------------------------|
B|--------------------------------------------------------------------------|
G|--------------------------------------------------------------------------|
D|--------------------------------------------------------------------------|
A|-0000-00-0000-00-000000-00000-00000-00000-000000-0000-00-0000-00-000000---|
D|-0000-00-0000-00-000000-00000-00000-00000-000000-0000-00-0000-00-000000---|
 | xxxx xx xxxx xx xxxxxx xxxxx xxxxx xxxxx xxxxxx xxxx xx xxxx xx xxxxxx   |
E|--------------------------------------------------------------------------|
B|--------------------------------------------------------------------------|
G|--------------------------------------------------------------------------|
D|--------------------------------------------------------------------------|
A|-00000-00-0-8888-5555-7777-3333-0-----------------------------------------|
D|-00000-00-0-8888-5555-7777-3333-0-----------------------------------------|
   xxxxx xx x xxxx xxxx xxxx xxxx x

************************************

| /   slide up
| \   slide down
| h   hammer-on
| p   pull-off
| ~   vibrato
| +   harmonic
| x   Mute note
| b   Bend
| pb  Pre-bend
| br  Bend release
| pbr Pre-bend release
| brb Bend release bend

************************************
Tap to rate this tab
# A B C D E F G H I J K L M N O P Q R S T U V W X Y Z