Song name
# A B C D E F G H I J K L M N O P Q R S T U V W X Y Z

Blessthefall - 40 Days tab

-----------------------------------------------------------------------------
                            Blessthefall - 40 Days
-----------------------------------------------------------------------------
Tabbed by:Cobjay Guitar
Youtube: www.youtube.com/cobjayguitar
Section: SOLO
Tuning:DADGBE


E|-----------------------------------------------------------|
B|-------------5h7h8--8b-----10-10-10--8-6---6---------------|
G|-------5h7h8---------------7--7--7-------7---7v----5s7v----|
D|-5h7h8-----------------------------------------------------|
A|-----------------------------------------------------------|
D|-----------------------------------------------------------|
   . . . . . . . . . 

E|---13p12---------------------------------------------------|
B|---------13h15---------------------------------------------|
G|---------------13p12br----14h15p15-12h14p12h14p12-10h12----|
D|-----------------------------------------------------------|
A|-----------------------------------------------------------|
D|-----------------------------------------------------------|

E|-----------------------------------------------------------|
B|-----------------------------------------------------------|
G|-9-10-9h10p9-----------------------------------------------|
D|-------------10-----10s12---12v---12s14---14v--------------|
A|----------------12-----------------------------------------|
D|-----------------------------------------------------------|

END. 
Tap to rate this tab
# A B C D E F G H I J K L M N O P Q R S T U V W X Y Z