Song name
# A B C D E F G H I J K L M N O P Q R S T U V W X Y Z

Blessthefall - Theres A Fine Line Between Love And Hate tab

. - Palm mute
/ - Slide up
\ - Slide down
t - Tap
p - Pull-off
h - Hammer-on
x - Mute string

Tuning: Drop D

Riff 1

Lead

|------------------------------------------------------|
|------------------------------------------------------|
|--t9p2h5t9p2h5t9p2h5t9p2h5t10p2h5t10p2h5t7p2h5t7p2h5--|
|------------------------------------------------------| x8
|------------------------------------------------------|
|------------------------------------------------------|

Rhythm

|----------------------------------------------------------------|
|----------------------------------------------------------------|
|----------------------------------------------------------------|
|--000---00-00---000---00-00-0000333---33-33---222---33-22-2-2---| x2
|--000---00-00---000---00-00-0000333---33-33---222---33-22-2-2---|
|--000---00-00---000---00-00-0000333---33-33---222---33-22-2-2---|
   ...   .. ..   ...   .. .. .......   .. ..   ...   .. .. . .

Riff 2 (played slower)

Lead

|-------------------------------------|
|-------------------------------------|
|--t9p2h5t9p2h5t9p2h5t10p2h5t7p2t7p2--|
|-------------------------------------| x12
|-------------------------------------|
|-------------------------------------|

Rhythm

|--------------------------------------------------------------|
|--------------------------------------------------------------|
|--------------------------------------------------------------|
|--000---00-00---000---00-00---333---33-33---222---33-22-2-2---| x2
|--000---00-00---000---00-00---333---33-33---222---33-22-2-2---|
|--000---00-00---000---00-00---333---33-33---222---33-22-2-2---|
   ...   .. ..   ...   .. ..   ...   .. ..   ...   .. .. . .

|--------------------------------------------------------------|
|--------------------------------------------------------------|
|--------------------------------------------------------------|
|--0----------0000----------0003----------3332222222233333222--|
|--0----------0000----------0003----------3332222222233333222--|
|--0----------0000----------0003----------3332222222233333222--|
              ...           ...           ...........

Riff 3 (Same tempo as Riff 1)

Lead

|--t12p5h8t12p5h8t12p5h8t12p5h8t13p5h8t13p5h8t10p5h8t10p5h8--|
|------------------------------------------------------------|
|------------------------------------------------------------|
|------------------------------------------------------------| x4
|------------------------------------------------------------|
|------------------------------------------------------------|

Rhythm

|-------------------------------------------|
|-------------------------------------------|    
|--------------7/9-9/10------------9/10/12--|     
|--000---00-00-x-x-x-x-000---00-00-x-x--x---|    
|--000---00-00-5/7-7/8-000---00-00-7/8-/10--|    
|--000---00-00---------000---00-00----------|    
   ...   .. ..         ...   .. ..               
                                                  
|----------------------------------------|       
|----------------------------------------|       
|---------------12\10\8------------------|       
|--333---33-33---x-x--x-222---33-22-2-2--|       
|--333---33-33--10\8-\7-222---33-22-2-2--|       
|--333---33-33----------222---33-22-2-2--|       
   ...   .. ..          ...   .. .. . .      

Riff 4 (Same tempo as Riff 2)

Lead

|--t12p5h8t12p5h8t12p5h8t13p5h8t13p5h8t10p5t10p5--|
|-------------------------------------------------|
|-------------------------------------------------|
|-------------------------------------------------| x6
|-------------------------------------------------|
|-------------------------------------------------|

(Gradually push down on whammy bar/pedal) 
  
|--t12p5h8t12p5h8t12p5h8t12p5h8t12p5h8t12p5h8t12--|
|-------------------------------------------------|
|-------------------------------------------------|
|-------------------------------------------------|
|-------------------------------------------------|
|-------------------------------------------------|
  
Rhythm

|-------------------------------------------|
|-------------------------------------------|    
|--------------7/9-9/10------------9/10/12--|     
|--000---00-00-x-x-x-x-000---00-00-x-x--x---|    
|--000---00-00-5/7-7/8-000---00-00-7/8-/10--|    
|--000---00-00---------000---00-00----------|    
   ...   .. ..         ...   .. ..               
                                                  
|------------------------------------------------------------|       
|------------------------------------------------------------|       
|---------------12\10\8--------------------------------------|       
|--333---33-33---x-x--x-222---33-22-2-2-0--------------------|       
|--333---33-33--10\8-\7-222---33-22-2-2-0--------------------|       
|--333---33-33----------222---33-22-2-2-0--------------------|       
   ...   .. ..          ...   .. .. . .
Tap to rate this tab
# A B C D E F G H I J K L M N O P Q R S T U V W X Y Z