Song name
# A B C D E F G H I J K L M N O P Q R S T U V W X Y Z

Blessthefall - Higinia tab

hello guys 1st q lng gmawa ng tab
99.8% lng hehehe sympre my unti mali
add nyo aq 
sandatahang_screamo@yahoo.com
hopesdielast-mond@yahoo.com.ph
screammyname07@yahoo.com

sna mguz2han nyo hahahaha
bnabati q pla c jonie katabi q hehehe

=================================================================
=======================1st guitar================================
=================================================================

intro
|-----------------------------------------------------|
|-----------------------------------------------------|
|---------------------5-------------------------------|
|---8--7--5-------------------------------------------|
|-------------0--7--8-----0--7--0--7h8----------------|
|-----------------------------------------------------|

 chorus: strum lng d2 (If you could stay here for just) 
|-----------------------------------------------------|
|-----------------------------------------------------|
|-------------(10-0-7-0-7h8)3x----12-0-9-0-9h10-------|2x
|-0-----5---------------------------------------------|
|-0-----5---------------------------------------------|
|-0-----5---------------------------------------------|

 refrain:(You're what makes me want to change things) 
|-----------------------------------------------------|
|-----------------------------------------------------|
|-----------------------------------------------------|
|-5--------8------------------------------------------|
|-5-x24----8-x24--------------------------------------|
|-5--------8------------------------------------------|

 (I would die just to live and yet we all live to die) 
|-----------------------------------------------------|
|-----------------------------------------------------|
|-----------------------------------------------------|4x
|-0-0-0-0-0----0-0-0----------------------------------|
|-0-0-0-0-0----0-0-0----------------------------------|
|-0-0-0-0-0----0-0-0----------------------------------|

 (You're what makes me want to change,)
|--------------------0~~~~~---------------------------|
|--------------------0~~~~~---------------------------|
|--------------------0~~~~~---------------------------|
|-5-x24---8x15-------10~~~~---------------------------|
|-5-------8----------8~~~~~---------------------------|
|-5-------8----------8--------------------------------|

 (you will not die,you will not die)
|-----------------------------------------------------|
|-----------------------------------------------------|
|-----------------------------------------------------|
|-0-0-0---0-0-0---0-0-0--0-0-0------------------------|4x
|-0-0-0---0-0-0---0-0-0--0-0-0------------------------|
|-0-0-0---0-0-0---0-0-0--0-0-0------------------------|

 ================ balik sa  chorus============ 


 bridge:  my effects d2 (I'd trade anything...)
|-----------------------------------------------------|
|-----------------------------------------------------|
|-----------------------------------------------------|
|-0~~~--------10--------------------------------------|
|-0~~~--------10-x16----------------------------------|
|-0~~~--------10--------------------------------------|

 (Take a step further back to where you belong)
|--------------------------------------------------------------------------|
|--------------------------------------------------------------------------|
|--------------------------------------------------------------------------|
|-00-0-00---00-0-00----------88-8-88---------------88-8-88-----------------|2x 
|-00-0-00---00-0-00--7-7h8---88-8-88-10-8-7-8-7h8--88-8-88-10-8-7-8--------|
|-00-0-00---00-0-00----------88-8-88---------------88-8-88-----------------|

 (I never had the chance to explain myself)
|--------------------------------------------------------------------------|
|--------------------------------------------------------------------------|
|--------------------------------------------------------------------------|
|-00-0-00--------00-0-00--------88-8-88--------------88-8-88---------------|2x
|-00-0-00-7-7h8--00-0-00-7-7h8--88-8-88-10-8-7-8-7h8-88-8-88-10-8-7-8-7----|
|-00-0-00--------00-0-00--------88-8-88--------------88-8-88---------------|
 
   outro:(You will not die,You will not die)
|--------------------------------------------------------------------------|
|--------------------------------------------------------------------------|
|--------------------------------------------------------------------------|
|-0-0-0---0-0-0---0-0-0--0-0-0---------------------------------------------|4x
|-0-0-0---0-0-0---0-0-0--0-0-0---------------------------------------------|
|-0-0-0---0-0-0---0-0-0--0-0-0---------------------------------------------|


====================================================================
=======================2nd guitar===================================
====================================================================

 (If you could stay here for just)
|--------------------------------------------------------------------------|
|--------------------------------------------------------------------------|
|------------10-10-10-10-\-12-12-12-12-/-7-7-7-7-\-9-9-9-9-9-9-9-9---------|
|-000000000---x--x--x--x-\--x--x--x--x-/-x-x-x-x-\-x-x-x-x-x-x-x-x---------|
|-000000000---8--8--8--8-\-10-10-10-10-/-5-5-5-5-\-7-7-7-7-7-7-7-7---------|
|-000000000----------------------------------------------------------------|
              (a little bit, a little while, a little bit with me )
|--------------------------------------------------------------------------|
|--------------------------------------------------------------------------|
|-------------5------------------------------------------------------------|
|-8-7-5---------------------10~--------------------------------------------|
|-------0-7-8---0-7-0-7h8---8~--strum--------------------------------------|
|---------------------------8~---------------------------------------------|
 
 delay lng ung lead d2 (and if God could keep you with me)
|--------------------------------------------------------------------------|
|--------------------------------------------------------------------------|
|-----------10-10-10-10-\-7-7-7-7-\-9-9-9-9-9-9-9-9------------------------|
|-00000000--x--x--x--x--\-x-x-x-x-\-x-x-x-x-x-x-x-x------------------------|
|-00000000--8--8--8--8--\-5-5-5-5-\-7-7-7-7-7-7-7-7------------------------|
|-00000000-----------------------------------------------------------------|
                           (I'd trade just about anything) 
|--------------------------------------------------------------------------|
|--------------------------------------------------------------------------|
|-------------5------------------------------------------------------------|
|-8-7-5--------------------10~~~-------------------------------------------|
|-------0-7-8---0-7-0-7h8--8~~~~-strum-------------------------------------|
|--------------------------8~~~~-------------------------------------------|

 refain:(You're what makes me want to change things)
|--------------------------------------------------------------------------|
|--------------------------------------------------------------------------|
|--------------------------------------------------------------------------|
|--------------------------------------------------------------------------|2x
|-555555--777777-888888-101010101010---------------------------------------|
|--------------------------------------------------------------------------|
 
  (I would die just to live and yet we all live to die) 
|--------------------------------------------------------------------------|
|--------------------------------------------------------------------------|
|--------------------------------------------------------------------------|
|-0-0-0-0-0--0-0-0---------------------------------------------------------|4x
|-0-0-0-0-0--0-0-0---------------------------------------------------------|
|-0-0-0-0-0--0-0-0---------------------------------------------------------|
 
(You're what makes me want to change,)
|------------------------------------------------------0~~~~---------------|
|------------------------------------------------------0~~~~---------------|
|------------------------------------------------------0~~~~---------------|
|555555--777777--888888-101010101010--555555--7777777--10~~~---------------|
|------------------------------------------------------8~~~~---------------|
|------------------------------------------------------8~~~~---------------|

 (you will not die,you will not die
|--------------------------------------------------------------------------|
|--------------------------------------------------------------------------|
|--------------------------------------------------------------------------|
|-0-0-0--0-0-0--0-0-0--0-0-0-----------------------------------------------|4x
|-0-0-0--0-0-0--0-0-0--0-0-0-----------------------------------------------|
|-0-0-0--0-0-0--0-0-0--0-0-0-----------------------------------------------|

  ==== balik sa chorus===

 bridge:
|--------------------------------------------------------------------------|
|--------------------------------------------------------------------------|
|--------------------------------------------------------------------------|
|-7-7h8--8-8h10--10-10h12--10-10\8-----------------------------------------|
|--------------------------------------------------------------------------|
|--------------------------------------------------------------------------|

|--------------------------------------------------------------------------|
|--------------------------------------------------------------------------|
|--------------------------------------------------------------------------|
|-7-7h8-8-8h10--10-10h12-13-13\12------------------------------------------|
|--------------------------------------------------------------------------|
|--------------------------------------------------------------------------|

|--------------------------------------------------------------------------|
|--------------------------------------------------------------------------|
|--------------------------------------------------------------------------|
|-7-7h8--8-8h10--10-10h12--10-10\8-----------------------------------------|
|--------------------------------------------------------------------------|
|--------------------------------------------------------------------------|
               
               (I'd trade anything...)
|--------------------------------------------------------------------------|
|--------------------------------------------------------------------------|
|--------------------------------------------------------------------------|
|-7-7h8-8-8h10--8-8-8-8-8-8-8-8-8-8-8-8-8-8-8-8----------------------------|
|---------------8-8-8-8-8-8-8-8-8-8-8-8-8-8-8-8----------------------------|
|---------------8-8-8-8-8-8-8-8-8-8-8-8-8-8-8-8----------------------------|

 (Take a step further back to where you belong )
|--------------------------------------------------------------------------|
|--------------------------------------------------------------------------|
|--------------------------------------------------------------------------|
|-00-0-00--00-0-00--5-5h7--88-8-88--8-7-5--------88-8-88-8-7-5-------------|2x
|-00-0-00--00-0-00---------88-8-88--------8-7-8--88-8-88-------8-7---------|
|-00-0-00--00-0-00---------88-8-88---------------88-8-88-------------------|

 (Take a look at your life what have you become)
|--------------------------------------------------------------------------|
|--------------------------------------------------------------------------|
|--------------------------------------------------------------------------|
|-00-0-00-5-5h7--00-0-00--5-5h7--88-8-88-8-7-5--------88-8-88-8-7-5--------|2x
|-00-0-00--------00-0-00---------88-8-88-------8-7-8--88-8-88-------8-7----|
|-00-0-00--------00-0-00---------88-8-88--------------88-8-88--------------|

 (You will not die,You will not die)
|--------------------------------------------------------------------------|
|--------------------------------------------------------------------------|
|--------------------------------------------------------------------------|
|-0-0-0--0-0-0--0-0-0--0-0-0-----------------------------------------------|4x
|-0-0-0--0-0-0--0-0-0--0-0-0-----------------------------------------------|
|-0-0-0--0-0-0--0-0-0--0-0-0-----------------------------------------------|

====================================end=====================================
Tap to rate this tab
 
# A B C D E F G H I J K L M N O P Q R S T U V W X Y Z