Song name
# A B C D E F G H I J K L M N O P Q R S T U V W X Y Z

Blessthefall - Waiting For Tomorrow tab

Here’s pretty much the whole Lead part.
Played in A Major

Intro: Played with reverb
e|----------------------------------------------------------------------------------|
B|----------------------------------------------------------------------------------|
G|-------13---------11--------9---------11---------13—-13/14—-13-—11—13/16—-14—-13--|x1
D|---11----------9--------7----------9---------11-----------------------------------|
A|9-----------7--------5----------7---------9---------------------------------------|
D|----------------------------------------------------------------------------------|

e|--------------------------------------------------------------------|
B|--------------------------------------------------------------------|
G|------9---------11-----------13---13/14—-13-—11—13/16—-14—-13-------| x3
D|---7----------9-----------11----------------------------------------|
A|5-----------7----------9--------------------------------------------|
D|--------------------------------------------------------------------|
     ^ Once clean then twice with distortion

Verse
e|---------------------------------------------------------------------------------|
B|---------------------------------------------------------------------------------|
G|---------13----14----13---11---13-------------------------------11----11---------|x5
D|----11------------------------------------7------------7------9--------------9---|
A|-99----9----99----99----9----9---------55----5----5/7-----77--------7-----7------|
D|---------------------------------------------------------------------------------|
   **    *    **    **    *    *         **    *    * *    **         *     *


e|------------------------------------------------------------------------------------------|
B|------------------------------------------------------------------------------------------|
G|------------------------------------------------------------------------------------------|
D|4444----------------------------0000-------------------------4444-------------------------|
A|4444------------------11-12-----0000------------------11-12--4444------------------11-12--|
D|4444--121212101010999-----------0000---121212101010999-------4444--121212101010999--------|
            e|-------------|
            B|-------------|
            G|-------------| x2
            D|---0-----2---|
            A|---0-x6--2-x6|
            D|---0-----2---|


Verse x4


e|------------------------------------------------------------------------------------------|
B|------------------------------------------------------------------------------------------|
G|------------------------------------------------------------------------------------------|
D|4444----------------------------0000-------------------------4444-------------------------|
A|4444------------------11-12-----0000------------------11-12--4444------------------11-12--|
D|4444--121212101010999-----------0000---121212101010999-------4444--121212101010999--------|
            e|-------------|
            B|-------------|
            G|-------------| x2
            D|---0-----2---|
            A|---0-x6--2-x6|
            D|---0-----2---|

e|-----------------------|  |------------------|
B|-----------------------|  |------------------|
G|-----------------------|  |---9-13-14-13-9---| x??
D|---0000--222222222-----|  |-11------------11-|
A|---0000—-222222222-----|  |9-----------------|
D|---0000--222222222-----|  |------------------|
     ****  *********

He plays something after this but I cant figure it out

Then the verse to the end


This was my first tab so enjoy.  I’ll try and get the second guitar up later.
Tap to rate this tab
# A B C D E F G H I J K L M N O P Q R S T U V W X Y Z