Blind Boy Fuller - Jivin Woman Blues tab

Song: Jivin Woman Blues 
Band: Blind Boy Fuller


Tuning: Standard



    
E||-------0-----0----------|-----------------------|-------0-----0----------|
B||----------4-----1-------|--3-------4------------|----------4-----1-------|
G||-------------------2----|-----------------------|-------------------2----|
D||------------------------|-------3----------4----|------------------------|
A||--3----------------0----|-----------------------|-------3-----------0----|
E||------------------------|--3----------4---------|--3---------------------|

   
-----------------------|-------0-----0----------|--------0----------------|
--3-------4------------|----------4-----1-------|-----------1-------------|
-----------------------|-------------------2----|--0--0--------2--0-------|
-------3----------4----|------------------------|-------------------------|
-----------------------|-------3-----------0----|--------3----------------|
--3----------4---------|--3---------------------|--------------------3----|

   
--------------------------|-----------------------|-------0-----0----------|
-----1--------1--------1--|-------------1---------|----------4-----1-------|
--------------------------|--------0--------------|-------------------2----|
--------------1-----------|--1---------------2----|------------------------|
--0-----3-----------3-----|-------------3---------|--3----------------0----|
-----------4-----3--------|-----4--3--------------|------------------------|

     
-----------------------|-------0-----0----------|-----------------------|
--3-------4------------|----------4-----1-------|--3-------4------------|
-----------------------|-------------------2----|-----------------------|
-------3----------4----|------------------------|-------3----------4----|
-----------------------|-------3-----------0----|-----------------------|
--3----------4---------|--3---------------------|--3----------4---------|

   
-------0-----0---------|--------0----------------|--------------------------|
----------4-----1------|-----------1-------------|-----1--------1--------1--|
-------------------2---|--0--0--------2--0-------|--------------------------|
-----------------------|-------------------------|--------------1-----------|
-------3-----------0---|--------3----------------|--0-----3-----------3-----|
--3--------------------|--------------------3----|-----------4-----4--------|

    
-----------------------|--0-------------------|--0--------0------------|
-------------1---------|--0-------------------|-----3--------3---------|
--------0--------------|--1-------------------|------------------------|
--1---------------2----|--2---------2---------|--2-----------2---------|
-------------3---------|--2-------------------|------------------------|
-----4--3--------------|--0----0---------0----|--------0----------4----|

   
-------3--------3-------|--5--4-----3------------|------------0----------|
----------2--------2----|------------------------|-------3-------3-------|
------------------------|------------------------|-----------------------|
-------2-----------2----|--------2---------------|-------4----------4----|
--0----------0----------|--0-----------0----4----|--5--------------------|
------------------------|------------------------|------------5----------|

    
--0---------------------|--5--3--5--3--5--3--5--3--|--5--3----3------------|
-----3-----3------------|--------------------------|-----------------------|
------------------------|--------------------------|-------------0---------|
--------4----------4----|--------------------------|-----------------------|
--5---------------------|--------------------------|-----------------------|
--------------5---------|--------------------------|------------------3----|

   
-------0-----0----------|------------------------|-------0-----0----------|
--1-------4-----1-------|--3--------4------------|----------4-----1-------|
-------------------2----|-----0------------------|-------------------2----|
------------------------|--------3----------4----|------------------------|
--3----------------0----|------------------------|-------3-----------0----|
------------------------|--3-----------4---------|--3---------------------|

        
--------0----------------|--------------------------|----------------------||
-----4-----1-------------|-----1--------1--------1--|-------------1--------||
--0-----------2--0-------|--------------------------|--------0----0--------||
-------------------------|--------------1-----------|--1----------2--------||
-------------------------|--0-----3-----------3-----|-------------3--------||
--------------------3----|-----------4-----4--------|-----4--3-------------||




************************************

| /   slide up
| \   slide down
| h   hammer-on
| p   pull-off
| ~   vibrato
| +   harmonic
| x   Mute note
| b   Bend
| pb  Pre-bend
| br  Bend release
| pbr Pre-bend release
| brb Bend release bend

************************************
Tap to rate this tab
 
# A B C D E F G H I J K L M N O P Q R S T U V W X Y Z