Song name
# A B C D E F G H I J K L M N O P Q R S T U V W X Y Z

Blind Boy Fuller - I Crave My Pigmeat tab

Song: I Crave My Pigmeat
Band: Blind Boy Fuller


Tuning: Standard




   
E||--2--7--------5--0---------|--------0-----0-----------|
B||--------8------------------|-----0-----3-----3-----2--|
G||--2--7-----7--5-----0--0h--|--1-----------------------|
D||---------------------------|--------2-----------2-----|
A||---------------------------|--------------------------|
E||---------------------------|--0-----------0-----------|

  
-----3-------2-----0--3--|----------------------|--2--7--------5--0-------|
----------------3--------|----------------------|--------8----------------|
-------------------------|----------------------|--2--7-----7--5-----0--0h|
--------2----------0-----|-------0---------0----|-------------------------|
--0----------------------|----------------------|-------------------------|
-------------2-----------|--3---------3---------|-------------------------|

    
-------0-----0-----------|--------5-----3--3------|--2-----2--2-----2-------|
----0-----3-----3-----2--|-----------2------------|--1--------1-----1-------|
-1-----------------------|-----2------------------|--------2----------------|
-------2-----------2-----|--------2-----------2---|-----0--------------0----|
-------------------------|--0-----------0---------|-------------------------|
-0-----------0-----------|------------------------|--2-----------2----------|

    
--------3-----3--3-------|--1-----1--1--------1----|--------3-----3---------|
-----0-------------------|-------------------------|--1---------------------|
--0----------------------|-----------------0-------|-----0-----0-----0------|
--------0-----------0----|--------0-----------0----|--------2-----------2---|
--------------2----------|-----2-------------------|--3-----------3---------|
--3--------3-------------|--3-----------3----------|------------------------|

  
----------3-----3-------|--------------0---------|--0-----0--------0--------|
-------2----------------|--------0--3------------|-----0-----3-----------2--|
----------3-----3-------|-----3------------------|--------------------------|
--1----------1-----1----|--------0----------0----|--------2-----------2-----|
------------------------|------------------------|--------------------------|
------------------------|--3-----------3---------|--0-----------0-----------|

                                                
-----3-------2-----0--3--|------------------0-----------|
----------------3--------|---------------------3-----2--|
-------------------------|------------------------------|
--------2----------0-----|-------0h--1h--2--------2-----|
--0----------------------|------------------------------|
-------------2-----------|--3---------------0-----------|

                                                                       
-----3-------2-----0--3--|----------------------|--------------0-----------|
----------------3--------|----------------------|-----------------3-----2--|
-------------------------|----------------------|--------------------------|
--------2----------0-----|-------0---------0----|-------0h1h2--------2-----|
--0----------------------|----------------------|--------------------------|
-------------2-----------|--3---------3---------|--3-----------0-----------|

                 
-----3-------2-----0--3--|--3----------------||
----------------3--------|--0----------------||
-------------------------|--0----------------||
--------2----------0-----|--0----------------||
--0----------------------|-------------------||
-------------2-----------|--3----------------||



************************************

| /   slide up
| \   slide down
| h   hammer-on
| p   pull-off
| ~   vibrato
| +   harmonic
| x   Mute note
| b   Bend
| pb  Pre-bend
| br  Bend release
| pbr Pre-bend release
| brb Bend release bend

************************************
Tap to rate this tab
 
# A B C D E F G H I J K L M N O P Q R S T U V W X Y Z