Song name
# A B C D E F G H I J K L M N O P Q R S T U V W X Y Z

Blind Boy Fuller - Careless Love tab

Song: Careless Love
Band: Blind Boy Fuller



Tuning: Standard



E||--------------------|--------------------------|
B||--1-----------------|------------3----1--2-----|
G||---------------2----|--1--------------------2--|
D||--------------------|-------2------------------|
A||--------------------|--------------------------|
E||--------------------|-------0------------------|

                                                                       
-------------------0---------|-------5--3-------------|-------2-------------|
----------------------3--1-2-|------------------------|------------1--------|
------------0h--1------------|--2---------------------|-----------------2---|
-------2--------------2------|-------2----------------|--0------------------|
--0--------------------------|--4----------0----3--4--|---------------------|
------------0----------------|------------------------|---------------------|

     
-----5--------5-----------|--0------------0---------|-------5---------------|
--4--------------4--------|------------------3--1-2-|----------2------------|
--------5-----------------|-------------------------|--2--------------------|
--4--------4--------4-----|--2-------2-------0------|-------2---------------|
--------------------------|-------0-----------------|--4----------0----0----|
-----------------------0--|-------------------------|-----------------------|

   
-----5p4--0--5p4--0-----|-----------------------|------------------------|
---------------------1--|--2--2-----------------|-------3----1p--0-------|
------------------------|--------------2--------|-------------------2----|
---------------------1--|--2-----0--------------|------------------------|
------------------------|-----------4-----------|--0---------------------|
--0---------------------|-------------------0---|----------------------0-|

                                                                 
----------------------|-----------0---------|--------------------------|
-------1---------3----|--1------------------|------------3----1--2-----|
------------2---------|----------------2----|--1--------------------2--|
----------------------|---------------------|-------2------------------|
--0-------------------|---------------------|--------------------------|
----------------------|---------------------|-------0------------------|

                                               
------------------0-----------|-------5--5-----------||
---------------------3--1--2--|----------------------||
------------0--1--------------|--2-------------------||
-------2-------------2--------|-------2--------------||
--4---------------------------|--4----------0--------||
------------0-----------------|----------------------||



************************************

| /   slide up
| \   slide down
| h   hammer-on
| p   pull-off
| ~   vibrato
| +   harmonic
| x   Mute note
| b   Bend
| pb  Pre-bend
| br  Bend release
| pbr Pre-bend release
| brb Bend release bend

************************************
Tap to rate this tab
 
# A B C D E F G H I J K L M N O P Q R S T U V W X Y Z