Song name
# A B C D E F G H I J K L M N O P Q R S T U V W X Y Z

Blind Faith - Had To Cry Today tab

Blind Faith - Had to Cry Today 
byDz

e|----------------------------------------------------|
B|---------------------------------------------------*|
G|--------3-----------------------------------3-5-3---|
D|-3-h5-5---5-h3-0---------0------------------3-5-3---|
A|------------------1-h3-3---3-h1-----1-------1-3-1--*|
E|--------------------------------3-------3-----------|
Riff *4

C7 (ou 335533      puis      353533)                       
It's already written that today will be one to remember (riff)
C7
The feeling's the same as being outside of the law 
(riff mais finissant ainsi:)

E7xx3545   C#m6xx3435  Am6xx3323  C#mx46654  C  AM7-5x7654
ou plutot :  
e|--------/-------------------4-------------3--5--------|
B|--------/----9----9----9----5-------------5--5--------|
G|--3--4--/-----9----9----9---6------4-6-4--5--6--------|
D|--3--4--/------9----8----7--6--4-6--------5--7--------|
A|--1--2--/---7----7----7-----4-------------3--7--------|
E|--------/------------------------------------5--------|
           Had to cry today

Well, I saw your sign and I missed you there
C#m9x11999 C8x1098x  A5x7654
(riff) *2

C7
I'm taking the chance to see the wind in your eyes while I listen
C7
You say you can't reach me but you want every word to be free

E7     C#m6  Am6  C#m
Had to cry today

Amaj7   E7       C#m6       Am6            C#m
Well, I saw your sign and I missed you there

Riff variantes :
---------------|-----------------|1-3-1|
---------------|-----------------|1-3-1|
---------3-----|-----------------|3-5-3| repeat
---3h5-5--5-3--|-----------------|3-5-3|
--------------5|3-3-3-5-3-1---1--|1-3-1|
---------------|------------3---3|1-3-1|

       h    -    h         h           h   b
e|------------------------------------------------------------|
B|-----------11-----------------------------------------------|
G|--10-12-12----12-10-----------------------------------------|
D|--------------------12---8-10-10--12-10-8----8-----8-10-8---|
A|------------------------------------------10---10--8-10-8---|
E|------------------------------------------------------------|
Tap to rate this tab
# A B C D E F G H I J K L M N O P Q R S T U V W X Y Z