Song name
# A B C D E F G H I J K L M N O P Q R S T U V W X Y Z

Blind Faith - Had To Cry Today chords

Highlighted       Show chord diagrams
-------------------------------------------------------------------------------
			     HAD TO CRY TODAY - BLIND FAITH
-------------------------------------------------------------------------------
Tabbed by:1943mb
Email:jeep1943@juno.com

Tuning:Normal
   
    C7                          Gm      Bb  Gm    Bb   C    Bb
   IT'S ALREADY WRITTEN, ETC.   RIFF
e|---3---------------------------3------1----3----1----3----1----------------|
B|---5---------------------------3------3----3----3----5----3----------------|
G|---3---------------------------3------3----3----3----5----3----------------|
D|---5---------------------------5------3----5----3----5----3----------------|
A|---3---------------------------5------1----5----1----3----1----------------|
E|---3---------------------------3------1----3----1----3----1----------------|

    C7                          Gm     Bb   Gm   Bb        B    
   THE FEELING'S THE SAME,ETC.  RIFF
e|--3----------------------------3-----1----3---- 1--------2-----------------|
B|--5----------------------------3-----3----3-----3--------4-----------------|
G|--3----------------------------3-----3----3-----3--------4-----------------|
D|--5----------------------------5-----3----5-----3--------4-----------------|
A|--3----------------------------5-----1----5-----1--------2-----------------|
E|--3----------------------------3-----1----1-----1--------2-----------------|

    E    Edim              DbM      C       A
   HAD TO CRY TODAY ,ETC.
e|--4-----4-----4-----------4-------0-------0--------------------------------|
B|--5-----5-----5-----------5-------1-------2--------------------------------|
G|--4-----3-----2-----------6-------0-------2--------------------------------|
D|--2-----2-----2-----------6-------2-------2--------------------------------|
A|--2-----2-----2-----------4-------3-------0--------------------------------|
E|--0-----0-----0-----------4-------3-------X--------------------------------|

    E    Edim             DbM       C      C   Bb   RIFF
   WELL I SAW , ETC.
e|--4-----4-----4----------4--------0------0---1-----------------------------|
B|--5-----5-----5----------5--------1------1---3-----------------------------|
G|--4-----3-----2----------6--------0------0---3-----------------------------|
D|--2-----2-----2----------6--------2------2---3-----------------------------|
A|--2-----2-----2----------4--------3------3---1-----------------------------|
E|--0-----0-----0----------4--------3------3---1-----------------------------|
   
  RIFF                   
e|---------------------------------------------------------------------------|
B|---------------------------------------------------------------------------|
G|---------------3-----------------------------------------------------------|
D|----3----5-5-------5-p-3----------------------0--------------~-------------|
A|---------------------------5------1----3--3-------3-p-1-------1~ ----------|
E|----------------------------------------------------------3--------3-------|

   Bb     C      Bb
e|-1------3------1-----------------------------------------------------------|
B|-3------5------3-----------------------------------------------------------|
G|-3------5------3-----------------------------------------------------------|
D|-3------5------3-----------------------------------------------------------|
A|-1------3------1-----------------------------------------------------------|
E|-1------3------1-----------------------------------------------------------|

Tap to rate this tab
 
# A B C D E F G H I J K L M N O P Q R S T U V W X Y Z