Song name
# A B C D E F G H I J K L M N O P Q R S T U V W X Y Z

Blind Guardian - New Order tab

Intro
|-----------------------------------------------------------------|
|-----9-9-9---7-7-7---6-6-6-------9-9-9---7-7-7---10-10-10--------|
|-----6-6-6---6-6-6---6-6-6-------6-6-6---6-6-6---6--6--6---------|
|-----------------------------------------------------------------|
|-4---------------------------------------------------------------|
|----------------------------4-5----------------------------------|

Lead guitar comes in w/light distortion.
|------------------------------|
|------------------------------|
|------------------------------|
|------------------------------|
|----4/6\4~----6/7~------------|
|------------------------------|


|------------------------------------|
|------------------------------------|
|------------------------------------|
|----6-6--9-8-7----------------------|
|----6-6--9-8-7----------------------|
|----4-4--7-6-5----9p5-5-4~-2~-------|


the next part is easy to figure out the rythm, so I'm just going to write down the power chords.

C# G# A

Lead thingy
|------------------------------------------------------------------------------------|
|----------2-3-2h3p2-----3-2-----2~---3\2~-----------2-3-2h3p2-----7-5-3-5\6~--------|
|--------4-----------4--------4---------------------4-----------4--------------------|
|------4---------------4--------4-----------------4---------------4------------------|
|----2------------------------------------------2------------------------------------|
|------------------------------------------------------------------------------------|


Chorus:  I wrote down the chords again.

C#  E  B#  A

Thats all I figured out....I will figure the rest later and tab it out.  Enjoy.  :)
Tap to rate this tab
# A B C D E F G H I J K L M N O P Q R S T U V W X Y Z