Song name
# A B C D E F G H I J K L M N O P Q R S T U V W X Y Z

Blind Guardian - Hall Of The King tab

 TUNE 1/2 STEP DOWN 

   Intro

e:-||---------------------------------------------------------------||
B:-||-------------------------------------------------------##------||
G:-||-*------------------------------------------------------9----*-||
D:-||-*-----------------------------------------------------------*-||
A:-||---12121012-10101212-881010-7788-12121012-10101212-8-10-7------||
E:-||---------------------------------------------------------------||
        P.M.................................................

   ## "Upper note is played by Guitar 2."

e:-||-----------------------------------------||
B:-||-----------------------------------------||
G:-||-----------------------------------------||
D:-||------------------------------10-9-10----||
A:-||-5544-5544-8877-8877-5544-5544-8-7--8----||
E:-||-----------------------------------------||
      P.M..........................

e:-||--------------------------------------||
B:-||--------------------------------------||
G:-||--------------------------------------||
D:-||-7-6-7-6-----------7-7-6-6-10-9-10----||
A:-||-5-4-5-4-8877-8877-5-5-4-4--8-7--8----||
E:-||--------------------------------------||
              P.M......

e:-||---------------------------------------||
B:-||-------##------------------------------||
G:-||-*-----9\8-----8/9-----9/10-----10\9-*-||
D:-||-*-----9\8-----8/9-----9/10-----10\9-*-||
A:-||---0-0-7\6-0-0-6/7-0-0-7/-8-0-0--8\7---||
E:-||---------------------------------------||
        P.M.    ...     ...      ...
Tap to rate this tab
 
# A B C D E F G H I J K L M N O P Q R S T U V W X Y Z