Song name
# A B C D E F G H I J K L M N O P Q R S T U V W X Y Z

Blind Guardian - The Lord Of The Rings tab

Tittle: Lord of the rings
Album:  Forgotten Tales
Transcribed by Vitaliy Nikitin
---------------------------------------------------------------------------------

This tab was made by Arthur the King (but I think it's not the king's 
work to made tabs :) )
Comments: hail all, when I was searching for BG tabs, I found 3 tabs of 
Lord, but they all were uncorrect, so I thinked alittle and mixed some 
correct part of them with adding some mine parts,this tab isn't perfect 
,but it sounds very closer to the original song.

                          

legend:
h-hammer
p-pull
~-vibrato
sl.-slide

                         Lord of the rings
                         by Blind Guardian

INTRO (let ring all)

    rake 
E||---0----------|--------------|--------------|--------------|
B||--0---0-------|-----------0--|-----------0--|--(0)---------|
G||--0------0----|--------0-----|--------0-----|---------3----|
D||--2-----------|-----0--------|-----3--------|--------------|
A||--2-----------|--------------|--1-----------|--------------|
E||-0---------0--|--3-----------|--------------|--------------|

    rake
E||---0----------|--------------|--------------|--------------|
B||--0---0-------|-----------0--|-----------0--|-----------0--|
G||--0------0----|--------0-----|--------0-----|--2-----2-----|
D||--2-----------|-----0--------|-----4--------|-----4--------|
A||--2-----------|--------------|--2-----------|--------------|
E||-0---------0--|--3-----------|--------------|--------------|

    rake 
E||---0----------|--------------|--------------|--------------|
B||--0---0-------|-----------0--|-----------0--|--(0)---------|
G||--0------0----|--------0-----|--------0-----|---------3----|
D||--2-----------|-----0--------|-----3--------|--------------|
A||--2-----------|--------------|--1-----------|--------------|
E||-0---------0--|--3-----------|--------------|--------------|

                   h                                  pause
E||-----------0--|--------------|-----------0--|--------------|
B||--------1-----|--3--1--0-----|--------1-----|--1--0--------|
G||-----0--------|-----------0--|-----2--------|--------------|
D||--------------|--------------|--------------|--------------|
A||--3-----------|--------------|--0-----------|----------3-2-|
E||--------------|--------------|--------------|--------------|
                                                       There are 


Verse 1 :
      Am                            G
E||--------------|--------------|-----------3--|--------------|
B||-----------1--|--------------|--------------|-----3-----3--|
G||--------2-----|--2-----------|--------0-----|--------0-----|
D||-----2--------|-----2----2---|--------------|--------------|
A||--0-----------|--------0-----|-----2--------|--------------|
E||--------------|--------------|--3-----------|--------------|
    signs          on the          ring                     which


     C                             Em
E||--------------|--0-----------|--------------|--------------|
B||-----------1--|-----1-----1--|--------------|--0--1h--0----|
G||--------0-----|--------0-----|-----------0--|-----------0--|
D||-----2--------|--------------|--------2-----|--------------|
A||--3-----------|--------------|-----2--------|--------------|
E||--------------|--------------|--0-----------|--------------|
    make     me   feel   so       down                     there's


     Am                             C
E||--------------|--------------|-----------0--|--------------|
B||-----------1--|--------------|--------------|-----1-----1--|
G||--------2-----|--2-----------|--------0-----|--------0-----|
D||-----2--------|-----2----2---|-----2--------|--------------|
A||--0-----------|--------0-----|--3-----------|--------------|
E||--------------|--------------|--------------|--------------|
     one      to   enslave         all rings                to

     G                             Em
E||--------------|-----3--------|--------------|--------------|
B||--------------|--3-----3-----|--------------|--0--1h-0-----|
G||-----------0--|-----------0--|----------0---|----------0---|
D||--------0-----|--------------|-------2------|--------------|
A||-----2--------|--------------|----2---------|--------------|
E||--3-----------|--------------|-0------------|--------------|
     find     them  all in         time                     and

     Am                            C
E||--------------|--------------|-----------0--|--------------|
B||-----------1--|--------------|--------------|-----1-----1--|
G||--------2-----|--2-----------|--------0-----|--------0-----|
D||-----2--------|-----2----2---|-----2--------|--------------|
A||--0-----------|--------0-----|--3-----------|--------------|
E||--------------|--------------|--------------|--------------|
    drive    them  in - to        darkness                 for-


    G                             Am             B  Am
E||--------------|-----3--------|--------------|--------------|
B||--------------|--3-----3-----|-----------1--|-----------1--|
G||-----------0--|-----------0--|--------2-----|--------2-----|
D||--------0-----|--------------|-----2--------|-----2--------|
A||-----2--------|--------------|--0-----------|--1-----------|
E||--3-----------|--------------|--------------|--------------|
    ev -   -   -  -  er           they'll be bound
  
     Am
E||--------------|--------------|--0-----------|-(0)----------|
B||-----------1--|--------------|--------------|--------------|
G||--------2-----|--2-----2-----|--------------|--------------|
D||-----2--------|-----2-----2--|--------------|--------------|
A||--0-----------|--------------|--------------|--------------|
E||--------------|--------------|--------------|--------------|

Verse 2

     Am                            Em
E||--------------|--------------|--------------|--------------|
B||-----------1--|--------------|--------------|--0--1h--0----|
G||--------2-----|--2-----------|-----------0--|-----------0--|
D||-----2--------|-----2-----2--|--------2-----|--------------|
A||--0-----------|--------0-----|-----2--------|--------------|
E||--------------|--------------|--0-----------|--------------|
    Three    for    the           king's                   of the

     G                             Bm
E||--------------|-----3--------|--------------|---------------|
B||--------------|--3-----3-----|-----------3--|---------------|
G||-----------0--|-----------0--|--------4-----|-----4----4----|
D||--------0-----|--------------|-----4--------|--------4----4-|
A||-----2--------|--------------|--2-----------|---------------|
E||--3-----------|--------------|--------------|---------------|
   elfes          high     in    light


    C                             Am 
E||--------------|--------------|--------------|--------------|
B||-----------1--|--------------|-----------0--|--0--1h--0----|
G||--------0-----|--0-----------|--------2-----|-----------2--|
D||-----2--------|-----2-----2--|-----2--------|--------------|
A||--3-----------|--------3-----|--0-----------|--------------|
E||--------------|--------------|--------------|--------------|
         nine      to the        mortal                   which

     Am
E||--------------|--------------|--0-----------|--(0)---------|
B||-----------1--|--------------|--------------|--------------|
G||--------2-----|--2-----2-----|--------------|--------------|
D||-----2--------|-----2-----2--|--------------|--------------|
A||--0-----------|--------------|--------------|--------------|
E||--------------|--------------|--------------|--------------|
   cry

Refrain
      
      Em               D              Bm          C
E||-------0-------|------2-------|-----2-------|-------0--------|
B||------0--0-----|-----3--3-----|----3--3-----|------1---1-----|
G||-----0-----0---|----2-----2---|---4-----4---|-----0------0---|
D||----2--------2-|---0--------0-|---4-------4-|----2---------2-|
A||----2----------|--------------|--2----------|--3-------------|
E||--0------------|--------------|--2----------|-3--------------|
    I'll       keep  the  ring     full  of    sorrow

      Em               D              Bm          C
E||-------0-------|------2-------|-----2-------|-------0--------|
B||------0--0-----|-----3--3-----|----3--3-----|------1---1-----|
G||-----0-----0---|----2-----2---|---4-----4---|-----0------0---|
D||----2--------2-|---0--------0-|---4-------4-|----2---------2-|
A||----2----------|--------------|--2----------|--3-------------|
E||--0------------|--------------|--2----------|-3--------------|
    I'll       keep  the  ring     'till I die

     Em               D              Bm          C
E||-------0-------|------2-------|-----2-------|-------0--------|
B||------0--0-----|-----3--3-----|----3--3-----|------1---1-----|
G||-----0-----0---|----2-----2---|---4-----4---|-----0------0---|
D||----2--------2-|---0--------0-|---4-------4-|----2---------2-|
A||----2----------|--------------|--2----------|--3-------------|
E||--0------------|--------------|--2----------|-3--------------|
    I'll       keep  the  ring     full  of    sorrow

      Em               D              Bm          C
E||-------0-------|------2-------|-----2-------|-------0--------|
B||------0--0-----|-----3--3-----|----3--3-----|------1---1-----|
G||-----0-----0---|----2-----2---|---4-----4---|-----0------0---|
D||----2--------2-|---0--------0-|---4-------4-|----2---------2-|
A||----2----------|--------------|--2----------|--3-------------|
E||--0------------|--------------|--2----------|-3--------------|
    I'll       keep  the  ring     'till I die

     Em               D              Bm          C
E||-------0-------|------2-------|-----2-------|-------0--------|
B||------0--0-----|-----3--3-----|----3--3-----|------1---1-----|
G||-----0-----0---|----2-----2---|---4-----4---|-----0------0---|
D||----2--------2-|---0--------0-|---4-------4-|----2---------2-|
A||----2----------|--------------|--2----------|--3-------------|
E||--0------------|--------------|--2----------|-3--------------|
    Slow down  and  I  sail    on    the   river

      Em               D              Bm          C
E||-------0-------|------2-------|-----2-------|-------0--------|
B||------0--0-----|-----3--3-----|----3--3-----|------1---1-----|
G||-----0-----0---|----2-----2---|---4-----4---|-----0------0---|
D||----2--------2-|---0--------0-|---4-------4-|----2---------2-|
A||----2----------|--------------|--2----------|--3-------------|
E||--0------------|--------------|--2----------|-3--------------|
    Slow       down         and  I walk to  the  hill

     Em               D              Bm          C
E||-------0-------|------2-------|-----2-------|-------0--------|
B||------0--0-----|-----3--3-----|----3--3-----|------1---1-----|
G||-----0-----0---|----2-----2---|---4-----4---|-----0------0---|
D||----2--------2-|---0--------0-|---4-------4-|----2---------2-|
A||----2----------|--------------|--2----------|--3-------------|
E||--0------------|--------------|--2----------|-3--------------|
    Slow down  and  I  sail    on    the   river

      Em               D              Bm          C
E||-------0-------|------2-------|-----2-------|-------0--------|
B||------0--0-----|-----3--3-----|----3--3-----|------1---1-----|
G||-----0-----0---|----2-----2---|---4-----4---|-----0------0---|
D||----2--------2-|---0--------0-|---4-------4-|----2---------2-|
A||----2----------|--------------|--2----------|--3-------------|
E||--0------------|--------------|--2----------|-3--------------|
    Slow       down         and  I walk to  the  hill

               h                  slide 
E||-----------2-3|-2------------|--3/5---------|--(5)---------|
B||--------3-----|----3------3--|--------------|--------------|
G||-----2--------|-------2------|--------------|--------------|
D||-0------------|--------------|--------------|--------------|
A||--------------|--------------|--------------|--------------|
E||--------------|--------------|--------------|--------------|


E||--0--------0--|--------0-----|-[1--------1--|--------1-----|
B||-----1--------|--1--------1--|-[---1--------|--1--------1--|
G||--------2-----|-----2--------|--------2-----|-----2--------|
D||--------------|--------------|--------------|--------------|
A||--0-----------|--------------|--0-----------|--------------|
E||--------------|--------------|--------------|--------------|

    and there's    no way        out.......

(2x)
                                                Am                Em
E||---------0-----------------|----------------------|-----------------|
B||-1---3---------------------|--------1---0---------|----1--0---------|
G||-----------------2---0---2-|----2-----------0---2-|-2-------0-------|
D||---------------------------|--------------------2-|-------------2---|
A||---------0---------------0-|--------------------0-|-------------2---|
E|| --------------------------|------------0---------|-------------0---|


E||--------------|--------------|--------------|--------------|
B||--------------|--------------|--------------|--------------|
G||--------------|--------------|--2-----------|--------------|
D||--2-----------|--(2)---------|--2-----------|--------------|
A||--2-----------|--(2)---------|--0-----------|--------------|
E||--0-----------|--(0)---------|--------------|--------------|
    Mordor     Mordor        Mordo - o - or                   dark
 
E||--------------|--------------|--------------|--------------|
B||--------------|--------------|--------------|--------------|
G||--5-----------|--------------|--3-----------|--------------|
D||--5-----------|--------------|--3-----------|--------------|
A||--3-----------|--------------|--1-----------|--------------|
E||--------------|--------------|--------------|--------------|
    land under     sa-u-ron's        spell

    (2x)
E||------------------|-----------------|          
B||------------------|-----------------|          
G||*-----------------|----------------*|   
D||*--7---10--9---5--|--7-------------*|     
A||---7---10--9---5--|--7--------------|         
E||---5---8---7---3--|--5--------------|         
    threatened a long time          

                     F 
E||--------------|--1-------1---|-----1-------1|-------1------|
B||--------------|--1-1---1---1-|---1---1---1--|-1---1---1---1|
G||--------------|--2---2-------|-2-------2----|---2-------2--|
D||--7--10-9--5--|--3-----------|--------------|--------------|
A||--7--10-9--5--|--3-----------|--------------|--------------|
E||--5--8--7--3--|--1-----------|--------------|--------------|
            seven rings to the gnoms and their halls made of stone - into the

     G                    D                                Em
E||--3----3---3---3----|--2----2----2-----|-2------------|--0-----------|
B||--3-3-3-3-3-3-3-3-3-|--3-3-3-3-3--3-3--|---3---3------|--0-----------|
G||--0--0---0---0---0--|--2--2---2----2---|-----2--------|--0-----------|
D||--0-----------------|--0---------------|--------------|--2-----------|
A||--2-----------------|------------------|--------------|--2-----------|
E||--3-----------------|------------------|--------------|--0-----------|
   valley           I     feel                             down


Verse 3

   Em                             G
E||--------------|----0---------|--------------|-----3--------|
B||--------------|--0----0------|--------------|--------3-----|
G||-----------0--|----------0---|-----------0--|-----------0--|
D||--------2-----|--------------|--------0-----|--------------|
A||-----2--------|--------------|-----2--------|--------------|
E||--0-----------|--------------|--3-----------|--------------|
    one ring for the              dark lord's hand
 
         D                            Em
E||-----------2h3p2--|--------------|--------------|-----0--------|
B||--------3---------|--3-----------|--------------|--------0-----|
G||-----2------------|-----2-----2--|-----------0--|-----------0--|
D||--0---------------|--------0-----|--------2-----|--------------|
A||------------------|--------------|-----2--------|--------------|
E||------------------|--------------|--0-----------|--------------|
        sitting   on   his            throne             in the

     C                              D
E||--------------|--0-----------|----------2h3p2---|--------------|
B||-----------1--|-----1-----1--|-------3----------|-----3-----3--|
G||--------0-----|--------0-----|-----2------------|--------2-----|
D||-----2--------|--------------|--0---------------|--------------|
A||--3-----------|--------------|------------------|--------------|
E||--------------|--------------|------------------|--------------|
     land          so              dark                 where

       Bm                            C
E||--------------|--------------|--------------|--------------|
B||-----------3--|--------------|-----------1--|--------------|
G||--------4-----|--4-----------|--------0-----|-----0-----0--|
D||-----4--------|-----4-----4--|-----2--------|--------2-----|
A||--2-----------|--------2-----|--3-----------|--------------|
E||--------------|--------------|--------------|--------------|
       I      have      to           go

Refrain

      Em               D              Bm          C
E||-------0-------|------2-------|-----2-------|-------0--------|
B||------0--0-----|-----3--3-----|----3--3-----|------1---1-----|
G||-----0-----0---|----2-----2---|---4-----4---|-----0------0---|
D||----2--------2-|---0--------0-|---4-------4-|----2---------2-|
A||----2----------|--------------|--2----------|--3-------------|
E||--0------------|--------------|--2----------|-3--------------|
    I'll        keep         the       ring     

      Em               D              Bm          C
E||-------0-------|------2-------|-----2-------|-------0--------|
B||------0--0-----|-----3--3-----|----3--3-----|------1---1-----|
G||-----0-----0---|----2-----2---|---4-----4---|-----0------0---|
D||----2--------2-|---0--------0-|---4-------4-|----2---------2-|
A||----2----------|--------------|--2----------|--3-------------|
E||--0------------|--------------|--2----------|-3--------------|
     I'll        keep    the     ring     

     Em               D              Bm          C
E||-------0-------|------2-------|-----2-------|-------0--------|
B||------0--0-----|-----3--3-----|----3--3-----|------1---1-----|
G||-----0-----0---|----2-----2---|---4-----4---|-----0------0---|
D||----2--------2-|---0--------0-|---4-------4-|----2---------2-|
A||----2----------|--------------|--2----------|--3-------------|
E||--0------------|--------------|--2----------|-3--------------|
    I'll       keep  the  ring    

      Em               D              Bm          C
E||-------0-------|------2-------|-----2-------|-------0--------|
B||------0--0-----|-----3--3-----|----3--3-----|------1---1-----|
G||-----0-----0---|----2-----2---|---4-----4---|-----0------0---|
D||----2--------2-|---0--------0-|---4-------4-|----2---------2-|
A||----2----------|--------------|--2----------|--3-------------|
E||--0------------|--------------|--2----------|-3--------------|
    I'll       keep  the  ring     

 ( and the same chords go on chorus, listen to the chorus rithm on cassete or CD)

   Em     D         Bm        C
   Slow down and I sail on the river   

    Em     D         Bm        C
   Slow down and I walk to the hill        

   Em     D         Bm        C
   Slow down and I sail on the river   

    Em     D         Bm        C
   Slow down and I walk to the hill      


       D 
               h                  slide 
E||-----------2-3|-2------------|--3/5---------|--(5)---------|
B||--------3-----|----3------3--|--------------|--------------|
G||-----2--------|-------2------|--------------|--------------|
D||-0------------|--------------|--------------|--------------|
A||--------------|--------------|--------------|--------------|
E||--------------|--------------|--------------|--------------|

     Am                
E||--------------|-------5-------|
B||----------1---|-------5-------|
G||-------2------|--2----5-------|
D||----2---------|-------7-------|
A||-0------------|-------7-------|
E||--------------|-------5-------|
  Lo-ord of the  rings



any comments and wishes send to nikit666@chat.ru

bluephoenix83@hotmail.com
Tap to rate this tab
# A B C D E F G H I J K L M N O P Q R S T U V W X Y Z