Blind Guardian - A Voice In The Dark tab

----------------------------------------------------------------------------
			 A Voice in the Dark - Blind Guardian
----------------------------------------------------------------------------
this song is the single off the newest album, At the Edge of Time. 
this is only the first couple riffs, I'll tab the rest when I figure it out. 
Tabbed by: thrashmonkey

Tuning: Eb

e|---------------------------------------|
B|---------------------------------------|
G|---------------------------------------|
D|---------------------------------------|
A|-----7p5h7-----8p7h8-----7p5h7----8--5-|
E|-0-0-------0-0-------0-0-------0--6--3-|

play this 8 times, then play

e|---------------------------------------|
B|---------------------------------------|
G|---------------------------------------|
D|------9------10------9-----------------|
A|------7------8-------7------8-8--------|
E|-0000---0000----0000---000--6-6--------|

sorry, that's all I have for now. Like I said, I'll tab the rest as soon as I figure it out.

************************************

| h   hammer-on
| p   pull-off

************************************
Tap to rate this tab
 
# A B C D E F G H I J K L M N O P Q R S T U V W X Y Z