Blind Guardian - Bright Eyes tab

-------------------------------------------------------------------------------
			     Blind Guardian-Bright Eyes
-------------------------------------------------------------------------------
Tabbed by:CaioNaudhiz
Email:caiovikingpower@hotmail.com

Tuning:Eb

e|--15^--15~------------------24+---12^---12/13/12--------------------------|
B|-----------17^---17~---24+------------------------15--13--12-12-13-15--15^|
G|--------------------------------------------------------------------------|
D|--------------------------------------------------------------------------|
A|--------------------------------------------------------------------------|
E|--------------------------------------------------------------------------|

e|---------------------------------------------------------------------------|
B|---------------------------------------------------------------------------|
G|--9----9---10----10-9--5-----5-7--5--7-------------------------------------|
D|--7-77-7-7-7--77-7--7--3--33-3-5--3--5-------------------------------------|
A|---------------------------------------------------------------------------|
E|---------------------------------------------------------------------------|

e|--------------------------------------------------------------------------|
B|--------------------------------------------------------------------------|
G|--------------------------------------------------------------------------|
D|--------------------------------------------------------------------------|
A|---7--------------------7-------------------------------------------------|
E|---5---5-5 555-5-5-555--5--8-8-777-7-7-555--------------------------------|

e|--------------------------------------------------------------------------|
B|--------------------------------------------------------------------------|
G|--------------------------------------------------------------------------|
D|---------------7-5-------------------7-5----------------------------------|
A|-----7-8-5--7--------8-7-----8-5--7-------8-------------------------------|
E|---5----------------------5-----------------------------------------------|

e|-----------------------------------------------------------2X--------------|
B|---------------------------------------------------------------------6-5---|
G|-----4 5--4/5/4--------------4-4/5/4-----7---------4**5-------4-5-7--------|
D|7--7--------------7-5-----5------------7----***--7-------**7---------------|
A|----------------------7----------------------------------------------------|
E|---------------------------------------------------------------------------|

************************************

| /   slide up
| \   slide down
| h   hammer-on
| p   pull-off
| ~   vibrato
| +   harmonic
| x   Mute note
| b   Bend
| pb  Pre-bend
| br  Bend release
| pbr Pre-bend release
| brb Bend release bend
Tap to rate this tab
 
# A B C D E F G H I J K L M N O P Q R S T U V W X Y Z