Song name
# A B C D E F G H I J K L M N O P Q R S T U V W X Y Z

Blind Guardian - Time What Is Time tab

#----------------------------------PLEASE NOTE---------------------------------#
#This file is the author's own work and represents their interpretation of the #
#song. You may only use this file for private study, scholarship, or research. #
#------------------------------------------------------------------------------#

TIME WHAT IS TIME
As recorded by Blind Guardian
(From the 1992 Album SOMEWHERE FAR BEYOND)


Transcribed by Simone Moretti - semenne@email.it

 

 

Em
0 2 2 0 0 0 Em/C
x 3 2 0 0 x G
3 2 0 x x x Bm/F#
2 2 0 x x x 
Bm/F
1 2 0 x x x G5
3 5 5 x x x E5
0 2 2 x x x Bb5
x 1 3 3 x x 
E5VII
x 7 9 9 x x D5
x 5 7 7 x x C5
x 3 5 5 x x A5
x 0 2 2 x x 
B5
x 2 4 4 x x F5
1 3 3 x x x G#5
4 6 6 x x x Asus2
x 0 2 2 0 0 
Asus2/F
x x 3 2 0 0 D5/Bb
6 x 7 7 x x E5/C
8 x 9 9 x x F#5
2 4 4 x x x 
Am
x 0 2 2 1 0 C
x 3 2 0 1 0 Em/B
x 2 2 0 x x Em/Bb
x 1 2 0 x x 


Gtr I (E A D G B E) - 'Distortion Guitar 1'
Gtr II (E A D G B E) - 'Distortion Guitar 2'
Gtr III (E A D G B E) - 'Distortion Guitar 3'
Gtr IV (E A D G B E) - 'Acoustic Guitar 1'
Gtr V (E A D G B E) - 'Acoustic Guitar 2'
Gtr VI (E A D G B E) - 'Acoustic Guitar 3'


 Acoustic Intro
  Q=185
             Em                  Em/C             Em
 4/4
  Gtr IV
  W          E E E E E E +E  E   E E E E +H       E E E E E E +E  E
|----------|-------------------|----------------|--------------------|
|----------|-------------------|-------0-(0)----|--------------------|
|----------|-------0-----------|-----0----------|-------0------------|
|----------|-----2---2---------|---2------------|-----2---2----------|
|----------|---2-------2-(2)-2-|-3--------------|---2-------2-(2)-2--|
|----------|-0-----------------|----------------|-0------------------|


  Em               Em                  Em/C             G      Bm/F#
  E E E E +H       E E E E E E +E  E   E E E E +H       E E Q  E E Q
|----------------|-------------------|----------------|---------------|
|-------0-(0)----|-------------------|-------0-(0)----|---------------|
|-----0----------|-------0-----------|-----0----------|---------------|
|---2------------|-----2---2---------|---2------------|-----0------0--|
|-3--------------|---2-------2-(2)-2-|-3--------------|---2------2----|
|----------------|-0-----------------|----------------|-3------2------|


  E E Q  +H           E E E E  E  E +E  E
|-------------------|---------------------|
|-------------------|---------------------|
|-------------------|-------0-------------|
|-----0--(0)--------|-----2----2----------|
|---2---------------|---2---------2-(2)-2-|
|-1-----------------|-0-------------------|
|
| Gtrs V, VI
| H       Q   E S S   H       +E  E  Q
|-------------------|---------------------|
|-------------------|---------------------|
|---------------4p2-|-4-------(4)---------|
|-------------------|---------------------|
|-------------------|---------------------|
|-------------------|---------------------|


  E E E E +H            E   E   E  E  E  E +E  E
|---------------------|--------------------------|
|-------0-(0)---------|--------------------------|
|-----0---------------|------------0-------------|
|---2-----------------|---------2-----2----------|
|-3-------------------|-----2------------2-(2)-2-|
|---------------------|-0------------------------|
|
| E E E E  E  S S E E   S S E  +Q    +E  E  Q
|-------2--3--3p2-----|--------------------------|
|-----5-----------5-3-|--------------------------|
|---4-----------------|-4p2-4--(4)---(4)---------|
|---------------------|--------------------------|
|---------------------|--------------------------|
|---------------------|--------------------------|


  E  E E E +H        E   E E E E E +E  E   E E E E +H        E E Q  E E Q
|------------------|---------------------|-----------------|---------------|
|--------0-(0)-----|---------------------|-------0-(0)-----|---------------|
|------0-----------|---------0-----------|-----0-----------|---------------|
|----2-------------|-------2---2---------|---2-------------|-----0------0--|
|-3----------------|-----2-------2-(2)-2-|-3---------------|---2------2----|
|------------------|-0-------------------|-----------------|-3------2------|
|
| Q.   Q   +E   Q    S S E H   Q           Q   E E  H        Q   Q  Q   Q
|------------------|---------------------|-----------------|---------------|
|---------------3--|---------------------|-------3---------|---------------|
|------2---(2)--4--|-4-4-2-4-------------|-----5-4--4------|-4---2---------|
|-5----4---(4)-----|-5-5-4-5-------------|-----7----5------|-5---4--5---4--|
|-7----------------|---------------------|-----------------|--------7---5--|
|------------------|---------------------|-----------------|---------------|


  E E Q  +H        E E E E E E +E  E    E  E E E +H
|----------------|-------------------|--------------------|
|----------------|-------------------|---------0-(0)------|
|----------------|-------0-----------|-------0------------|
|-----0--(0)-----|-----2---2---------|-----2--------------|
|---2------------|---2-------2-(2)-2-|--3-----------------|
|-1--------------|-0-----------------|--------------------|
|
| H           H    E E E E E E +Q      +Q    Q    Q   E E
|----------------|-------------------|--------------------|
|----------------|-------------------|----------------8-7-|
|----------------|-7---7---7-9-(9)---|-(9)----------------|
|-3--------------|-------------------|--------------------|
|-5--------------|-------------------|--------------------|
|----------------|-------------------|--------------------|


  E E E   E  E  E +E  E   E  E E E +H           E    E E E E E +E  E
|-----------------------|---------------------|----------------------|
|-----------------------|--------0-(0)--------|----------------------|
|---------0-------------|------0--------------|----------0-----------|
|-----2------2----------|----2----------------|--------2---2---------|
|---2-----------2-(2)-2-|-3-------------------|------2-------2-(2)-2-|
|-0---------------------|---------------------|-0--------------------|
|
| E E S S E +Q    +E  E   E  E E E  E  E E  E     H.            Q
|-----------------------|---------------------|----------------------|
|-8---8p7---------------|---10-8----7--8-7----|----------------------|
|---------9-(9)---(9)---|---------------------|---7-------------5----|
|-----------------------|---------------------|----------------------|
|-----------------------|---------------------|----------------------|
|-----------------------|---------------------|----------------------|


  E E E   E   +H             E    E   Q  E      E   Q    E        E  Q +H
|--------------------------|--------------------------|------------------------|
|---------0---(0)----------|--------------------------|------------------------|
|-----0--------------------|--------------------------|------------------------|
|---2----------------------|----------0-------------0-|--------------0-(0)-----|
|-3------------------------|------2-------------2-----|-----------2------------|
|--------------------------|-3-----------2------------|--1---------------------|
|
| E E S S S S  Q   +S  S E   E  E E   E  E   E  E   E    E  S  S  E  E  Q.   E
|--------------------------|--------------------------|------------------------|
|--------------------------|--------------------------|------------------------|
|-4-5-4h5p4----------------|--------------------------|------------------------|
|-----------7--5---(5)-----|-5-/7-7--/9--9-/10-10-/12-|-12-12p10p=9-----9------|
|--------------------------|-7-/9-9-/10-10-/12-12-/14-|-14-14p12p10-12-10------|
|--------------------------|--------------------------|-------------14---------|


  E E E   E   E   E   +E    E
|-------------------------------|
|-------------------------------|
|---------0---------------------|
|-----2-------2-----------------|
|---2-------------2---(2)---2---|
|-0-----------------------------|
|
| Q   S S S S S S S S  S  S S S
|-------------------------------|
|-------------------------------|
|-----7-7-7-7-7-7-7-7--7--7-7-7-|
|-------------------------------|
|-------------------------------|
|-------------------------------|


  E E E E +H              E E E E  E  E +E  E
|-----------------------|-----------------------|
|-------0-(0)-----------|-----------------------|
|-----0-----------------|-------0---------------|
|---2-------------------|-----2----2------------|
|-3---------------------|---2---------2-(2)-2---|
|-----------------------|-0---------------------|
|
| ~
| Q   E E +E  E S S S S   Q   E E +E  E  E  S S
|-----------------------|-----------------------|
|-----------------------|-----------------------|
|-7---5-4-(4)-5-4h5p4---|-4---5-4-(4)-------9-9-|
|---------------------7-|-----------------------|
|-----------------------|-----------------------|
|-----------------------|-----------------------|


  E  E E E +H             E E  E    E     E E  +E    E
|-----------------------|---------------------------------|
|--------0-(0)----------|---------------------------------|
|------0----------------|-----------0---------------------|
|----2------------------|------2----------2---------------|
|-3---------------------|---2---------------2--(2)---2----|
|-----------------------|-0-------------------------------|
|
| Q.     E  Q   S S S S   Q   +E    S  S  Q    +E    S  S
|---------------7-7-5-5-|-7---(7)---8--8--8----(8)--10-10-|
|---------------8-8-7-7-|-8---(8)--10-10-10---(10)--12-12-|
|-9---------------------|---------------------------------|
|-----------------------|---------------------------------|
|-----------------------|---------------------------------|
|-----------------------|---------------------------------|


   E E  E E +H        E E   Q   E E Q     E E Q   +H
|-------------------|-------------------|----------------||
|---------0-(0)-----|-------------------|----------------||
|-------0-----------|-------------------|----------------||
|----2--------------|-------0-------0---|-----0---(0)----||
|--3----------------|---2---------2-----|---2------------||
|-------------------|-3---------2-------|-1--------------||
|
|  Q    Q    Q   Q    E S S E E E E E E   E E E E  H
|-10----8----7---5--|-7-7p5-------------|----------------||
|-12---10----8---7--|-8-8p7-8-7-8-7-5---|-5--------------||
|-------------------|-------9-7-9-7-5-7-|-5-7-5-7--------||
|-------------------|-----------------9-|---9-7-9--7-----||
|-------------------|-------------------|----------9-----||
|-------------------|-------------------|----------------||


   Intro Solo
    G5                  E5
    Gtr I
    E S S E E E E E E   S S S S E E S S S S E E
||--------------------|-------------------------|
||o-------------------|-------------------------|
||--------------------|-------------------------|
||--5-------5---------|-------------------------|
||o-5-------5---------|-------------------------|
||--3-0-0-0-3-0-0-0-0-|-0-0-0-0-0-0-0-0-0-0-0-0-|


  G5                  E5        Bb5
  E S S E E E E E E   S S S S E E +H
|-------------------|---------------------||
|-------------------|--------------------o||
|-------------------|-----------3-(3)-----||
|-5-------5---------|-----------3-(3)-----||
|-5-------5---------|-----------1-(1)----o||
|-3-0-0-0-3-0-0-0-0-|-0-0-0-0-0-----------||


  E5VII                     D5
  Gtr I
   W                         W
   |                         |
   /                         /

  Gtr II
   Q       +Q    +Q    Q     Q.    E  +Q    Q
|-------------------------|--------------------|
|-15b17===(15)--(15)r=12--|-13----15-(15)--13--|
|-------------------------|--------------------|
|-------------------------|--------------------|
|-------------------------|--------------------|
|-------------------------|--------------------|
|
| Gtr III
|  Q       +Q    +Q    Q     Q.    E  +Q    Q
|-------------------------|--------------------|
|-15b17===(15)--(15)r=12--|-13----15-(15)--13--|
|-------------------------|--------------------|
|-------------------------|--------------------|
|-------------------------|--------------------|
|-------------------------|--------------------|


  E5VII                             C5          A5
   W                                 H           H
   |                                 |           |
   /                                 /           /

   S  S  S  S  +H         S  S  E    E  E  E  E  E  E  E  E
|---------------------------------|--------------------------|
|-12-13-12------------------------|--------------------------|
|----------14-(14)b16r===14-16-14-|-------12-14-16-14-12-14--|
|---------------------------------|-14-16--------------------|
|---------------------------------|--------------------------|
|---------------------------------|--------------------------|
|
|  S  S  S  S  +H         S  S  E    E  E  E  E  E  E  E  E
|---------------------------------|--------------------------|
|-12-13-12------------------------|-------12-13-15-13-12-----|
|----------14-(14)b16r===14-16-14-|-12-14----------------14--|
|---------------------------------|--------------------------|
|---------------------------------|--------------------------|
|---------------------------------|--------------------------|


  E5VII               D5
   W                   W
   |                   |
   /                   /

   Q   +H      E  E    H.             E  E
|-------------------|----------------------|
|-------------------|----------------------|
|-16--(16)----14-12-|-14-------------12-11-|
|-------------------|----------------------|
|-------------------|----------------------|
|-------------------|----------------------|
|
|  Q   +H      E  E    Q      +H      E  E
|-------------------|----------------------|
|-12--(12)----15-17-|-17b19--(17)----17-19-|
|-------------------|----------------------|
|-------------------|----------------------|
|-------------------|----------------------|
|-------------------|----------------------|


  E5VII                     C5          D5
   W                         H           H
   |                         |           |
   /                         /           /

   E  S  S  H     S  S  E    E  E  E  E  E  E  E  E
|-------------------------|---------------------------|
|-------------------------|----------------10-12-15---|
|-12-12-11----------------|--------9-11-12------------|
|----------14----12-14-12-|-10-12---------------------|
|-------------------------|---------------------------|
|-------------------------|---------------------------|
|
|  E  S  S  H     S  S  E    E  E  E  E  E  E  E  E
|-------------------------|-------------------19-22---|
|-20-20-19-17-------------|----------19-20-22---------|
|----------------19-21-19-|-17-19-21------------------|
|-------------------------|---------------------------|
|-------------------------|---------------------------|
|-------------------------|---------------------------|


 Verse 1
  E5                  C5              B5         C5
   W                    W             W           W
   |                    |             |           |
   /                    /             /           /

                        >
   Q       +H.         +H      H      W           E  E  E  E  +Q    +E   E
|-------------------|---------------|----------|--------3--3--(3)---(3)\---|
|-15b17===(15)------|-(15)r---------|----------|-----5---------------------|
|-------------------|---------------|----------|--5------------------------|
|-------------------|---------------|----------|---------------------------|
|-------------------|---------------|----------|---------------------------|
|-------------------|---------------|----------|---------------------------|
|
|                       >
|  Q       +H.         +H      H      W           E  E  E  E  +Q    +E   E
|-22b24===(22)------|-(22)r---------|----------|-------15-15-(15)--(15)\---|
|-------------------|---------------|----------|----17---------------------|
|-------------------|---------------|----------|-17------------------------|
|-------------------|---------------|----------|---------------------------|
|-------------------|---------------|----------|---------------------------|
|-------------------|---------------|----------|---------------------------|


  E5         C5         B5           C5
  W          W          W             W
  |          |          |             |
  /          /          /             /

  W          W          W             E  E  E  E  +Q    +E   E
|----------|----------|------------|--------3--3--(3)---(3)\-----|
|----------|----------|------------|-----5-----------------------|
|----------|----------|------------|--5--------------------------|
|----------|----------|------------|-----------------------------|
|----------|----------|------------|-----------------------------|
|----------|----------|------------|-----------------------------|
|
| W          W          W             E  E  E  E  +Q    +E   E
|----------|----------|------------|-------15-15-(15)--(15)\-----|
|----------|----------|------------|----17-----------------------|
|----------|----------|------------|-17--------------------------|
|----------|----------|------------|-----------------------------|
|----------|----------|------------|-----------------------------|
|----------|----------|------------|-----------------------------|


    E5            B5  C5  E5            C5  B5
    E E S S S S E E E E   E E S S S S E E E E
||----------------------|---------------------|
||o---------------------|---------------------|
||----------------4---5-|---------------5---4-|
||--2-2-----------4---5-|-2-2-----------5---4-|
||o-2-2-----------2---3-|-2-2-----------3---2-|
||--0-0-0-0-0-0-0---0---|-0-0-0-0-0-0-0---0---|


  E5            B5  C5  E5            C5  B5
  E E S S S S E E E E   E E S S S S E E E E
|---------------------|----------------------||
|---------------------|---------------------o||
|---------------4---5-|---------------5---4--||
|-2-2-----------4---5-|-2-2-----------5---4--||
|-2-2-----------2---3-|-2-2-----------3---2-o||
|-0-0-0-0-0-0-0---0---|-0-0-0-0-0-0-0---0----||


    Gtr I
    S S S S E S S S S  E  S S S S    E  S S S S  E  S S S S  Q    4x
||--------------------------------|-------------------------------||
||o-------------------------------|------------------------------o||
||----------5----------7----------|--8-----------7-----------8----||
||----------5----------7----------|--8-----------7-----------8----||
||o-0-0-0-0-3-0-0-0-0--5--0-0-0-0-|--6--0-0-0-0--5--0-0-0-0--6---o||
||--------------------------------|-------------------------------||
|
|   Gtr II
|                                                            ~~~
|   S S S S E S S S S  E  S S S S    E  S S S S  E  S S S S  Q    4x
||--------------------------------|-------------------------------||
||o-------------------------------|------------------------------o||
||----------5---------[7]---------|-[8]---------[7]---------[8]---||
||----------5----------7----------|--8-----------7----------------||
||o-0-0-0-0---0-0-0-0-----0-0-0-0-|-----0-0-0-0-----0-0-0-0------o||
||--------------------------------|-------------------------------||


 Chorus
  A5         F5         G5         E5
  W          W          W          W
|----------|----------|----------|------|
|----------|----------|----------|------|
|-2--------|----------|----------|------|
|-2--------|-3--------|-5--------|-2----|
|-0--------|-3--------|-5--------|-2----|
|----------|-1--------|-3--------|-0----|


  A5         F5         C5         E5
  W          W          W          W
|----------|----------|----------|------|
|----------|----------|----------|------|
|-2--------|----------|-5--------|------|
|-2--------|-3--------|-5--------|-2----|
|-0--------|-3--------|-3--------|-2----|
|----------|-1--------|----------|-0----|


  A5                              F5
  E S S S S S S S S S S S S S S   E S S S S S S S S S S S S S S
|-------------------------------|--------------------------------|
|-------------------------------|--------------------------------|
|-2-----------------------------|--------------------------------|
|-2-----------------------------|-3------------------------------|
|-0-0-0-0-0-0-0-0-0-0-0-0-0-0-0-|-3------------------------------|
|-------------------------------|-1-1-1-1-1-1-1-1-1-1-1-1-1-1-1--|


  C5                              E5
  E S S S S S S S S S S S S S S   E S S S S S S S S S S S S S S
|-------------------------------|--------------------------------|
|-------------------------------|--------------------------------|
|-5-----------------------------|--------------------------------|
|-5-----------------------------|-2------------------------------|
|-3-3-3-3-3-3-3-3-3-3-3-3-3-3-3-|-2------------------------------|
|-------------------------------|-0-0-0-0-0-0-0-0-0-0-0-0-0-0-0--|


  A5                              F5
  E S S S S S S S S S S S S S S   E S S S S S S S S S S S S S S
|-------------------------------|--------------------------------|
|-------------------------------|--------------------------------|
|-2-----------------------------|--------------------------------|
|-2-----------------------------|-3------------------------------|
|-0-0-0-0-0-0-0-0-0-0-0-0-0-0-0-|-3------------------------------|
|-------------------------------|-1-1-1-1-1-1-1-1-1-1-1-1-1-1-1--|


  G5         G#5
  W          W
|----------|------|
|----------|------|
|----------|------|
|-5--------|-6----|
|-5--------|-6----|
|-3--------|-4----|


 Verse 2
  Asus2              Asus2/F          Asus2              Asus2/F
  E E E E E E +Q     E E E E +H       E E E E E E +Q     E E E E +H
|------------------|-------0-(0)----|------------------|-------0-(0)----|
|-------0----------|-----0----------|-------0----------|-----0----------|
|-----2---2--------|---2------------|-----2---2--------|---2------------|
|---2-------2-(2)--|-3--------------|---2-------2-(2)--|-3--------------|
|-0----------------|----------------|-0----------------|----------------|
|------------------|----------------|------------------|----------------|


  Asus2              Asus2/F          Asus2              Asus2/F
  E E E E E E +Q     E E E E +H       E E E E E E +Q     E E E E +H
|------------------|-------0-(0)----|------------------|-------0-(0)----|
|-------0----------|-----0----------|-------0----------|-----0----------|
|-----2---2--------|---2------------|-----2---2--------|---2------------|
|---2-------2-(2)--|-3--------------|---2-------2-(2)--|-3--------------|
|-0----------------|----------------|-0----------------|----------------|
|------------------|----------------|------------------|----------------|


  Asus2              Asus2/F          Asus2              Asus2/F
  E E E E E E +Q     E E E E +H       E E E E E E +Q     E E E E +H
|------------------|-------0-(0)----|------------------|-------0-(0)----|
|-------0----------|-----0----------|-------0----------|-----0----------|
|-----2---2--------|---2------------|-----2---2--------|---2------------|
|---2-------2-(2)--|-3--------------|---2-------2-(2)--|-3--------------|
|-0----------------|----------------|-0----------------|----------------|
|------------------|----------------|------------------|----------------|


  D5
    PM--|   PM|     PM  PM------------|
  E E E E E E E E   E E E E E E S S S S
|-----------------|---------------------|
|-----------------|---------------------|
|-7-------7-----7-|---7-----------------|
|-7-------7-----7-|---7-----------------|
|-5-5-5-5-5-5-5-5-|-5-5-5-5-5-5-5-5-5-5-|
|-----------------|---------------------|


  D5/Bb
    PM--|   PM|     PM  PM------------|
  E E E E E E E E   E E E E E E S S S S
|-----------------|---------------------|
|-----------------|---------------------|
|-7-------7-----7-|---7-----------------|
|-7-------7-----7-|---7-----------------|
|-----------------|---------------------|
|-6-6-6-6-6-6-6-6-|-6-6-6-6-6-6-6-6-6-6-|


  D5
    PM--|   PM|     PM  PM------------|
  E E E E E E E E   E E E E E E S S S S
|-----------------|---------------------|
|-----------------|---------------------|
|-7-------7-----7-|---7-----------------|
|-7-------7-----7-|---7-----------------|
|-5-5-5-5-5-5-5-5-|-5-5-5-5-5-5-5-5-5-5-|
|-----------------|---------------------|


  D5/Bb
    PM--|   PM|     PM  PM------------|
  E E E E E E E E   E E E E E E S S S S
|-----------------|---------------------|
|-----------------|---------------------|
|-7-------7-----7-|---7-----------------|
|-7-------7-----7-|---7-----------------|
|-----------------|---------------------|
|-6-6-6-6-6-6-6-6-|-6-6-6-6-6-6-6-6-6-6-|


  E5
    PM--|   PM|     PM  PM------------|
  E E E E E E E E   E E E E E E S S S S
|-----------------|---------------------|
|-----------------|---------------------|
|-9-------9-----9-|---9-----------------|
|-9-------9-----9-|---9-----------------|
|-7-7-7-7-7-7-7-7-|-7-7-7-7-7-7-7-7-7-7-|
|-----------------|---------------------|


  E5/C
    PM--|   PM|     PM  PM------------|
  E E E E E E E E   E E E E E E S S S S
|-----------------|---------------------|
|-----------------|---------------------|
|-9-------9-----9-|---9-----------------|
|-9-------9-----9-|---9-----------------|
|-----------------|---------------------|
|-8-8-8-8-8-8-8-8-|-8-8-8-8-8-8-8-8-8-8-|


  E5
    PM--|   PM|     PM  PM------------|
  E E E E E E E E   E E E E E E S S S S
|-----------------|---------------------|
|-----------------|---------------------|
|-9-------9-----9-|---9-----------------|
|-9-------9-----9-|---9-----------------|
|-7-7-7-7-7-7-7-7-|-7-7-7-7-7-7-7-7-7-7-|
|-----------------|---------------------|
|
|   Gtr II
|         W           W
|-----------------|---------------------|
|-----------------|---------------------|
|-----------------|---------------------|
|-----------------|---------------------|
|-----------------|---------------------|
|-----------------|---------------------|


  E5/C
    PM--|   PM|     PM
  E E E E E E E E   E  E  H.
|-----------------|-------------------------------------|
|-----------------|-------------------------------------|
|-9-------9-------|-9-----------------------------------|
|-9-------9-------|-9-----------------------------------|
|-----------------|-------------------------------------|
|-8-8-8-8-8-8-8-8-|-8-----------------------------------|
|
|                               \5__________________|
| W                    Q       +H      +E    +S    +S
|-----------------|-------------------------------------|
|-----------------|-------------------------------------|
|-----------------|---<5>-----(<5>)---(<5>)-(<5>)-(<5>)-|
|-----------------|-------------------------------------|
|-----------------|-------------------------------------|
|-----------------|-------------------------------------|


    A5   B5                  B5   A5     C5        D5
    H    H      +W           Q.   E +Q   Q    +Q   Q  H
||------------|------------|----------------|---------------||
||o-----------|------------|----------------|--------------o||
||--2----4----|-(4)--------|-4----2-(2)--5--|-(5)--7--7-----||
||--2----4----|-(4)--------|-4----2-(2)--5--|-(5)--7--7-----||
||o-0----2----|-(2)--------|-2----0-(0)--3--|-(3)--5--5----o||
||------------|------------|----------------|---------------||


 Solo 1
  A5                            F5                                  A5
  Gtr I
   Q      S   S  S S   E  E +E   E    +Q    S    S   S  S E  E  +E  E
|----------------------------------|----------------------------------|
|----------------------------------|----------------------------------|
|--9----------------------9-(9)----|--------------------------------9-|
|--7------7---7--7-7---7--7-(7)-10-|-(10)---7----7---7--7-7-10-(10)-7-|
|--0----------------------0-(0)--8-|--(8)--------------------8--(8)-0-|
|----------------------------------|----------------------------------|
|
| Gtr II
|  Q.        +E       +Q     E   E    +Q    E       +Q       E  +Q
|-15b17=====(15)-----(15)r==12--13-|-(13)--15b17r==(15)-----13-(13)---|
|----------------------------------|----------------------------------|
|----------------------------------|----------------------------------|
|----------------------------------|----------------------------------|
|----------------------------------|----------------------------------|
|----------------------------------|----------------------------------|


                             F5
  +Q      S S S S   E  E +E   E
|-------------------------------|
|-------------------------------|
|-(9)------------------9-(9)----|
|-(7)-----7-7-7-7---7--7-(7)-10-|
|-(0)------------------0-(0)--8-|
|-------------------------------|
|
|  E   E  Q        +Q     E   E
|-12--13-12-------(12)----------|
|----------------------------12-|
|------------------------14-----|
|-------------------------------|
|-------------------------------|
|-------------------------------|


                               G5                           D5
   +Q      S S  S S  E  E  +E   E    +Q   S S S S  E  E +E   E
|---------------------------------|-----------------------------|
|---------------------------------|-----------------------------|
|-------------------------------7-|--(7)--------------7-(7)-----|
|-(10)-----7-7--7-7--7-10-(10)--5-|--(5)--5-5-5-5--5--5-(5)--7--|
|--(8)------------------8--(8)--5-|--(5)--------------5-(5)--5--|
|---------------------------------|--------------------------5--|
|
|   E   E  E    E    E  E   E   E    +H            E  E  E   E
|---------12---13---12------------|-----------------------------|
|--13--15--------------15--13--15-|-(15)----------15-13-12--13--|
|---------------------------------|-----------------------------|
|---------------------------------|-----------------------------|
|---------------------------------|-----------------------------|
|---------------------------------|-----------------------------|


                             D5                                 E5
  +Q         S S S S E E +E   E    +Q      S S  S S   E   E +E   E
|-------------------------------|----------------------------------|
|-------------------------------|----------------------------------|
|-------------------------------|----------------------------------|
|-(7)------------------7-(7)--7-|--(7)--------------------7-(7)--9-|
|-(5)--------5-5-5-5-5-5-(5)--5-|--(5)-----5-5--5-5---5---5-(5)--7-|
|-(5)------------------5-(5)--5-|--(5)--------------------5-(5)--0-|
|
|  E   S  S  H            E   E    +E   E  E    E    +E   E  E   E
|-------------------------------|--------------13---(13)-12-13--15-|
|-----13-12------------------15-|-(15)-14-15-----------------------|
|-----------14------------------|----------------------------------|
|-------------------------------|----------------------------------|
|-------------------------------|----------------------------------|
|-------------------------------|----------------------------------|


                                 A5
   +Q         S  S  S S E  E +E   E
|-----------------------------------|
|-----------------------------------|
|---------------------------------9-|
|--(9)---------------------9-(9)--7-|
|--(7)--------7--7--7-7-7--7-(7)--0-|
|--(0)---------------------0-(0)----|
|
|  +Q        +E     E   E  E  E   E
|-(15)b17===(15)r==15-----19-----20-|
|-----------------------------------|
|-----------------------------------|
|-----------------------------------|
|-----------------------------------|
|-----------------------------------|


                            F5
   +Q   S S S S   E   E +E   E
|----------------------------------|
|----------------------------------|
|--(9)----------------9-(9)--------|
|--(7)--7-7-7-7---7---7-(7)-10-----|
|--(0)----------------0-(0)--8-----|
|----------------------------------|
|
|  +H            +E   E  E   E
|-(20)----------(20)-19-20--20b22==|
|----------------------------------|
|----------------------------------|
|----------------------------------|
|----------------------------------|
|----------------------------------|


                                A5                             F5
   +Q     S S  S S   E   E  +E   E    +Q   S S S S   E  E  +E   E
|----------------------------------|--------------------------------|
|----------------------------------|--------------------------------|
|--------------------------------9-|--(9)---------------9--(9)------|
|-(10)----7-7--7-7---7--10-(10)--7-|--(7)--7-7-7-7---7--7--(7)-10---|
|--(8)-------------------8--(8)--0-|--(0)---------------0--(0)--8---|
|----------------------------------|--------------------------------|
|
|  +Q     E    E    +Q       E   E    +H            +Q      E   E
|-(20)r--20---19---(19)-----20--17-|-(17)----------(17)-------------|
|----------------------------------|-----------------------17--18---|
|----------------------------------|--------------------------------|
|----------------------------------|--------------------------------|
|----------------------------------|--------------------------------|
|----------------------------------|--------------------------------|


                                 G5
   +Q    S    S S S   E   E  +E   E
|-----------------------------------|
|-----------------------------------|
|---------------------------------7-|
|-(10)---7----7-7-7---7--10-(10)--5-|
|--(8)--------------------8--(8)--5-|
|-----------------------------------|
|
|  +Q    Q           +Q       E   E
|-----------------------------------|
|-(18)--20b22r======(20)------------|
|----------------------------17--19-|
|-----------------------------------|
|-----------------------------------|
|-----------------------------------|


                             D5                              D5
   +Q     S  S S S  E  E +E   E   +Q         S S S S E E +E   E
|-------------------------------|-------------------------------|
|-------------------------------|-------------------------------|
|--(7)-----------------7-(7)----|-------------------------------|
|--(5)----5--5-5-5--5--5-(5)--7-|-(7)------------------7-(7)--7-|
|--(5)-----------------5-(5)--5-|-(5)--------5-5-5-5-5-5-(5)--5-|
|-----------------------------5-|-(5)------------------5-(5)--5-|
|
|  +Q    +E    E    E  E  E   E    E   S  S  H            E   E
|-------------------------------|-------------------------------|
|-------------------------------|-------------------------------|
|-(19)--(19)-------19-17-16--17-|-----17-16------------------19-|
|-------------------------------|-----------19------------------|
|-------------------------------|-------------------------------|
|-------------------------------|-------------------------------|


                                E5
   +Q      S S  S S   E   E +E   E    +Q      S S  S S   E  E +Q
|----------------------------------|-------------------------------|
|----------------------------------|-------------------------------|
|----------------------------------|-------------------------------|
|--(7)--------------------7-(7)--9-|--(9)-------------------9-(9)--|
|--(5)-----5-5--5-5---5---5-(5)--7-|--(7)-----7-7--7-7---7--7-(7)--|
|--(5)--------------------5-(5)--0-|--(0)-------------------0-(0)--|
|
|  +E   E  E    E    +E   E  E   E    +Q.          E    +H
|----------------------------------|-------------------------------|
|--------------18---(18)-17-18--20-|-(20)b22r=====20---(20)--------|
|-(19)-18-19-----------------------|-------------------------------|
|----------------------------------|-------------------------------|
|----------------------------------|-------------------------------|
|----------------------------------|-------------------------------|


 Verse 3
  A5                              G5
  E S S S S S S S S S S S S S S   E S S S S S S S S S S S S S S
|-------------------------------|--------------------------------|
|-------------------------------|--------------------------------|
|-2-----------------------------|--------------------------------|
|-2-----------------------------|-5------------------------------|
|-0-0-0-0-0-0-0-0-0-0-0-0-0-0-0-|-5------------------------------|
|-------------------------------|-3-3-3-3-3-3-3-3-3-3-3-3-3-3-3--|


  D5                              F5            G5
  E S S S S S S S S S S S S S S   E S S S S S S E S S S S S S
|-------------------------------|-----------------------------|
|-------------------------------|-----------------------------|
|-------------------------------|-----------------------------|
|-7-----------------------------|-3-------------5-------------|
|-5-5-5-5-5-5-5-5-5-5-5-5-5-5-5-|-3-------------5-------------|
|-5-----------------------------|-1-1-1-1-1-1-1-3-3-3-3-3-3-3-|


  A5                              G5
  E S S S S S S S S S S S S S S   E S S S S S S S S S S S S S S
|-------------------------------|--------------------------------|
|-------------------------------|--------------------------------|
|-2-----------------------------|--------------------------------|
|-2-----------------------------|-5------------------------------|
|-0-0-0-0-0-0-0-0-0-0-0-0-0-0-0-|-5------------------------------|
|-------------------------------|-3-3-3-3-3-3-3-3-3-3-3-3-3-3-3--|


  D5                              F5   G5
  E S S S S S S S S S S S S S S   H    H
|-------------------------------|-----------|
|-------------------------------|-----------|
|-------------------------------|-----------|
|-7-----------------------------|-3----5----|
|-5-5-5-5-5-5-5-5-5-5-5-5-5-5-5-|-3----5----|
|-5-----------------------------|-1----3----|


 Chorus
  A5         F5         G5         E5
  W          W          W          W
|----------|----------|----------|------|
|----------|----------|----------|------|
|-2--------|----------|----------|------|
|-2--------|-3--------|-5--------|-2----|
|-0--------|-3--------|-5--------|-2----|
|----------|-1--------|-3--------|-0----|


  A5         F5         C5         E5
  W          W          W          W
|----------|----------|----------|------|
|----------|----------|----------|------|
|-2--------|----------|-5--------|------|
|-2--------|-3--------|-5--------|-2----|
|-0--------|-3--------|-3--------|-2----|
|----------|-1--------|----------|-0----|


  A5                              F5
  E S S S S S S S S S S S S S S   E S S S S S S S S S S S S S S
|-------------------------------|--------------------------------|
|-------------------------------|--------------------------------|
|-2-----------------------------|--------------------------------|
|-2-----------------------------|-3------------------------------|
|-0-0-0-0-0-0-0-0-0-0-0-0-0-0-0-|-3------------------------------|
|-------------------------------|-1-1-1-1-1-1-1-1-1-1-1-1-1-1-1--|


  C5                              E5
  E S S S S S S S S S S S S S S   E S S S S S S S S S S S S S S
|-------------------------------|--------------------------------|
|-------------------------------|--------------------------------|
|-5-----------------------------|--------------------------------|
|-5-----------------------------|-2------------------------------|
|-3-3-3-3-3-3-3-3-3-3-3-3-3-3-3-|-2------------------------------|
|-------------------------------|-0-0-0-0-0-0-0-0-0-0-0-0-0-0-0--|


  A5                              F5
  E S S S S S S S S S S S S S S   E S S S S S S S S S S S S S S
|-------------------------------|--------------------------------|
|-------------------------------|--------------------------------|
|-2-----------------------------|--------------------------------|
|-2-----------------------------|-3------------------------------|
|-0-0-0-0-0-0-0-0-0-0-0-0-0-0-0-|-3------------------------------|
|-------------------------------|-1-1-1-1-1-1-1-1-1-1-1-1-1-1-1--|


  G5         G#5
  W          W
|----------|--------------|
|----------|--------------|
|----------|--------------|
|-5--------|-6------------|
|-5--------|-6------------|
|-3--------|-4------------|
|
| Gtr II
| W          H    Q  E  E
|----------|--------------|
|----------|--------------|
|----------|-----------12-|
|----------|--------------|
|----------|--------------|
|----------|--------------|


 Solo 2
    W                              W
|-------------------------------|--------------------|
|-------------------------------|--------------------|
|---5---------------------------|--------------------|
|-------------------------------|--5-----------------|
|-------------------------------|--------------------|
|-------------------------------|--------------------|
|
|   E       +Q    +Q    +E   Q     Q.    E  +Q    Q
|-------------------------------|-------12-(12)--13--|
|-[15]b17==(15)--(15)--(15)r13--|-15-----------------|
|-------------------------------|--------------------|
|-------------------------------|--------------------|
|-------------------------------|--------------------|
|-------------------------------|--------------------|


   W                         W
|-------------------------|--------------------|
|-------------------------|--------------------|
|--3----------------------|--------------------|
|-------------------------|--5-----------------|
|-------------------------|--------------------|
|-------------------------|--------------------|
|
|  Q       +Q    +Q    Q     Q.    E  +Q    Q
|-15b17===(15)--(15)r=13--|----------------13--|
|-------------------------|-12----13-(13)------|
|-------------------------|--------------------|
|-------------------------|--------------------|
|-------------------------|--------------------|
|-------------------------|--------------------|


   W                   W
|-------------------|-------------------|
|-------------------|-------------------|
|--5----------------|-------------------|
|-------------------|--5----------------|
|-------------------|-------------------|
|-------------------|-------------------|
|
|  H     +E   E  Q     E  E  +H      Q
|-12----(12)--------|-------------------|
|------------15-13--|-15----------------|
|-------------------|----12-(12)----14--|
|-------------------|-------------------|
|-------------------|-------------------|
|-------------------|-------------------|


   W                    Q.    E  +Q    Q
|--------------------|--------------------|
|--------------------|--------------------|
|--------------------|--------------------|
|--8-----------------|--8-----7--(7)---6--|
|--------------------|--------------------|
|--------------------|--------------------|
|
|  Q.    E  +Q    Q     Q.    E  +Q    Q
|--------------------|--------------------|
|--------------------|-15----13-(13)--11--|
|-15----14-(14)--12--|--------------------|
|--------------------|--------------------|
|--------------------|--------------------|
|--------------------|--------------------|


  A5
   S  S  S  S  S  S  S  S  S  S  S  S  S  S  S  S
|-------------------------------------------------|
|-------------------------------------------------|
|-------------------------------------------------|
|--7--7--7--7--7--7--7--7--7--7--7--7--7--7--7--7-|
|-------------------------------------------------|
|-------------------------------------------------|
|
|  S  S  S  S  S  S  S  S  S  S  S  S  S  S  S  S
|-------------------------12-12-------------------|
|-10-10-13-13-12-12-13-13-------13-13-12-12-13-13-|
|-------------------------------------------------|
|-------------------------------------------------|
|-------------------------------------------------|
|-------------------------------------------------|


  F5
   S  S  S  S  S  S  S  S  S  S  S  S S S  S  S
|-----------------------------------------------|
|-----------------------------------------------|
|-----------------------------------------------|
|-----------------------------------------------|
|--8--8--8--8--8--8--8--8--8--8--8--8-8-8--8--8-|
|-----------------------------------------------|
|
|  S  S  S  S  S  S  S  S  S  S  S  S S S  S  S
|-13-13-----------------------------------------|
|-------13-13-12-12-13-13-10-10-12-12-8-8-10-10-|
|-----------------------------------------------|
|-----------------------------------------------|
|-----------------------------------------------|
|-----------------------------------------------|


  D5
   S  S  S  S  S  S  S  S  S  S  S  S  S  S  S  S
|-------------------------------------------------|
|-------------------------------------------------|
|-------------------------------------------------|
|-------------------------------------------------|
|--5--5--5--5--5--5--5--5--5--5--5--5--5--5--5--5-|
|-------------------------------------------------|
|
|  S  S  S  S  S  S  S  S  S  S  S  S  S  S  S  S
|-------------------------12-12-------------------|
|-10-10-13-13-12-12-13-13-------13-13-12-12-10-10-|
|-------------------------------------------------|
|-------------------------------------------------|
|-------------------------------------------------|
|-------------------------------------------------|


  E5
  S S S S  S  S  S  S  S  S  S  S   S  S S S
|--------------------------------------------|
|--------------------------------------------|
|--------------------------------------------|
|--------------------------------------------|
|-7-7-7-7--7--7--7--7--7--7--7--7---7--7-7-7-|
|--------------------------------------------|
|
| S S S S  S  S  S  S  S  S  S  S   Q
|---------------------------------[12]-------|
|-9-9-9-9-10-10-10-10-12-12-12-12------------|
|--------------------------------------------|
|--------------------------------------------|
|--------------------------------------------|
|--------------------------------------------|


  A5
   S  S  S  S  S  S  S  S  S  S  S  S  S  S  S  S
|-------------------------------------------------|
|-------------------------------------------------|
|-------------------------------------------------|
|--7--7--7--7--7--7--7--7--7--7--7--7--7--7--7--7-|
|-------------------------------------------------|
|-------------------------------------------------|
|
|  S  S  S  S  S  S  S  S  S  S  S  S  S  S  S  S
|-------------------------12-12-------------------|
|-10-10-13-13-12-12-13-13-------13-13-12-12-13-13-|
|-------------------------------------------------|
|-------------------------------------------------|
|-------------------------------------------------|
|-------------------------------------------------|
|
| Gtr III
|  S  S  S  S  S  S  S  S  S  S  S  S  S  S  S  S
|-------------------------15-15-------------------|
|-13-13-17-17-15-15-17-17-------17-17-15-15-17-17-|
|-------------------------------------------------|
|-------------------------------------------------|
|-------------------------------------------------|
|-------------------------------------------------|


  F5
   S  S  S  S  S  S  S  S  S  S  S  S  S  S  S  S
|-------------------------------------------------|
|-------------------------------------------------|
|-------------------------------------------------|
|-------------------------------------------------|
|--8--8--8--8--8--8--8--8--8--8--8--8--8--8--8--8-|
|-------------------------------------------------|
|
|  S  S  S  S  S  S  S  S  S  S  S  S  S  S  S  S
|-13-13-------------------------------------------|
|-------13-13-12-12-13-13-10-10-12-12--8--8-10-10-|
|-------------------------------------------------|
|-------------------------------------------------|
|-------------------------------------------------|
|-------------------------------------------------|
|
|  S  S  S  S  S  S  S  S  S  S  S  S  S  S  S  S
|-17-17-------------------------------------------|
|-------17-17-15-15-17-17-13-13-15-15-12-12-13-13-|
|-------------------------------------------------|
|-------------------------------------------------|
|-------------------------------------------------|
|-------------------------------------------------|


  D5
   S  S  S  S  S  S  S  S  S  S  S  S  S  S  S  S
|-------------------------------------------------|
|-------------------------------------------------|
|-------------------------------------------------|
|-------------------------------------------------|
|--5--5--5--5--5--5--5--5--5--5--5--5--5--5--5--5-|
|-------------------------------------------------|
|
|  S  S  S  S  S  S  S  S  S  S  S  S  S  S  S  S
|-------------------------12-12-------------------|
|-10-10-13-13-12-12-13-13-------13-13-12-12-10-10-|
|-------------------------------------------------|
|-------------------------------------------------|
|-------------------------------------------------|
|-------------------------------------------------|
|
|  S  S  S  S  S  S  S  S  S  S  S  S  S  S  S  S
|-------------------------15-15-------------------|
|-13-13-17-17-15-15-17-17-------17-17-15-15-13-13-|
|-------------------------------------------------|
|-------------------------------------------------|
|-------------------------------------------------|
|-------------------------------------------------|


  E5
   S  S  S  S  S  S  S  S  S  S  S  S   S  S S S
|------------------------------------------------|
|------------------------------------------------|
|------------------------------------------------|
|------------------------------------------------|
|--7--7--7--7--7--7--7--7--7--7--7--7---7--7-7-7-|
|------------------------------------------------|
|
|  S  S  S  S  S  S  S  S  S  S  S  S   Q
|-------------------------------------[12]-------|
|--9--9--9--9-10-10-10-10-12-12-12-12------------|
|------------------------------------------------|
|------------------------------------------------|
|------------------------------------------------|
|------------------------------------------------|
|
|  S  S  S  S  S  S  S  S  S  S  S  S   Q
|--------------------------------------15--------|
|-12-12-12-12-13-13-13-13-15-15-15-15------------|
|------------------------------------------------|
|------------------------------------------------|
|------------------------------------------------|
|------------------------------------------------|


  E5                          C5
   Q       +Q    +Q    E  E    +Q    Q      +Q    E  E
|---------------------------|--------------------------|
|-15b17===(15)--(15)r=12-13-|-(13)--15b17r=(15)--------|
|---------------------------|--------------------12-14-|
|---------------------------|--------------------------|
|---------------------------|--------------------------|
|---------------------------|--------------------------|


  A5                   F#5
   +H.       S  S  E    E  E  E  E  E  E  S  S  S  S
|--------------------|--------------------------------|
|--------------------|----------12-13-15-13-15-13-12--|
|-(14)------12-14-12-|-11-12-14-----------------------|
|--------------------|--------------------------------|
|--------------------|--------------------------------|
|--------------------|--------------------------------|


  E5                           C5
   E      +H      +E    E  E    +Q    Q      +E   E  +Q
|----------------------------|----------------------------|
|----------------------------|----------------------------|
|-14b16==(14)----(14)r-------|-------14b16r=(14)-12-(12)--|
|----------------------12-14-|-(14)-----------------------|
|----------------------------|----------------------------|
|----------------------------|----------------------------|


  A5                  F#5
   E  E  Q   +H        E  E  E  E  +E   E  S  S  S  S
|-------------------|-----------------------------------|
|----12-13--(13)----|----------13-(13)-15-13-15-13-12---|
|-14----------------|-11-12-14--------------------------|
|-------------------|-----------------------------------|
|-------------------|-----------------------------------|
|-------------------|-----------------------------------|


   E      +H..                      +H         H
|--------------------------------|-----------------------|
|--------------------------------|-----------------------|
|-14b16==(14)--------------------|-(14)r-----------------|
|--------------------------------|-----------------------|
|--------------------------------|-----------------------|
|--------------------------------|-----------------------|
|
| Gtr II
|  Q           E    +E  +Q   E E    +Q    E E +E  E +Q
|--------------------------------|-----------------------|
|------------------------------8-|--(8)------------------|
|--5-----------7b8==(7)r(7)--5---|--------9-7-(7)-5-(5)--|
|--------------------------------|-----------------------|
|--------------------------------|-----------------------|
|--------------------------------|-----------------------|
|
| Gtr III
|  Q           E    +E  +Q   E E    +Q    E E +E  E +Q
|------------------------------7-|--(7)------------------|
|--------------7b8==(7)r(7)------|--------8-7-(7)--------|
|--9-------------------------9---|----------------9-(9)--|
|--------------------------------|-----------------------|
|--------------------------------|-----------------------|
|--------------------------------|-----------------------|


    W                            W
|----------------------------|----------------------|
|----------------------------|----------------------|
|----------------------------|----------------------|
|----------------------------|----------------------|
|----------------------------|----------------------|
|----------------------------|----------------------|
|
| Q   E  E  +Q    E      +E     +Q   E E +E  E +Q
|----------------------------|----------------------|
|-----5--7--(7)---7b8====(7)r|==(7)--5-3-(3)--------|
|-7--------------------------|---------------4-(4)--|
|----------------------------|----------------------|
|----------------------------|----------------------|
|----------------------------|----------------------|
|
| Q   E  E  +Q    E      +E     +Q   E E +E  E +Q
|----------------------------|----------------------|
|-7---8-10-(10)--10b12==(10)r|=(10)--8-7-(7)-8-(8)--|
|----------------------------|----------------------|
|----------------------------|----------------------|
|----------------------------|----------------------|
|----------------------------|----------------------|


  Gtr II
  Q   E      +E   +Q   E  E    +Q    E  E  +E  E +Q
|-3---2b3====(2)r=(2)-----7-|--(7)--------------------|
|----------------------5----|--------8--7--(7)-5-(5)--|
|---------------------------|-------------------------|
|---------------------------|-------------------------|
|---------------------------|-------------------------|
|---------------------------|-------------------------|
|
| Gtr III
| Q   E      +E   +Q   E  E    +Q    E  E  +E  E +Q
|------------------------10-|-(10)--------------------|
|----10b12==(10)r(10)--8----|-------12-10-(10)-8-(8)--|
|-9-------------------------|-------------------------|
|---------------------------|-------------------------|
|---------------------------|-------------------------|
|---------------------------|-------------------------|


  Q  E  E  +Q    E  E    +Q    Q   Q   Q
|---------------------|----------------------|
|-3--5--7--(7)---8-10-|-(10)--12--13--13b15--|
|---------------------|----------------------|
|---------------------|----------------------|
|---------------------|----------------------|
|---------------------|----------------------|
|
| Q  E  E  +Q    E  E    +Q    Q   Q   Q
|---------------------|----------------------|
|-7--8-10-(10)--12-13-|-(13)--15--17--17b19--|
|---------------------|----------------------|
|---------------------|----------------------|
|---------------------|----------------------|
|---------------------|----------------------|


  F5
  Gtr I
   S  S  S  S  S  S  S  S  S  S  S  S  S  S  S  S
|-------------------------------------------------|
|--------------------8--8-10-10--8--8-------------|
|-10-10--9--9-10-10-------------------10-10--9--9-|
|-------------------------------------------------|
|-------------------------------------------------|
|-------------------------------------------------|
|
| Gtr II
|  S  S  S  S  S  S  S  S  S  S  S  S  S  S  S  S
|-------------------15-15-17-17-15-15-------------|
|-18-18-17-17-18-18-------------------18-18-17-17-|
|-------------------------------------------------|
|-------------------------------------------------|
|-------------------------------------------------|
|-------------------------------------------------|
|
| Gtr III
|  S  S  S  S  S  S  S  S  S  S  S  S  S  S  S  S
|-------------------------------------------------|
|-------------------------------------------------|
|-------------------------------------------------|
|-------------------------------------------------|
|--8--8--8--8--8--8--8--8--8--8--8--8--8--8--8--8-|
|-------------------------------------------------|


  D5
   S  S  S  S  S  S  S  S  S  S  S  S  S  S  S  S
|-------------------------------------------------|
|-------------------------------------------------|
|--7--7--6--6--7--7--9--9-10-10--9--9--7--7--6--6-|
|-------------------------------------------------|
|-------------------------------------------------|
|-------------------------------------------------|
|
|  S  S  S  S  S  S  S  S  S  S  S  S  S  S  S  S
|-------------------------------------------------|
|-15-15-14-14-15-15-17-17-18-18-17-17-15-15-14-14-|
|-------------------------------------------------|
|-------------------------------------------------|
|-------------------------------------------------|
|-------------------------------------------------|
|
|  S  S  S  S  S  S  S  S  S  S  S  S  S  S  S  S
|-------------------------------------------------|
|-------------------------------------------------|
|-------------------------------------------------|
|-------------------------------------------------|
|--5--5--5--5--5--5--5--5--5--5--5--5--5--5--5--5-|
|-------------------------------------------------|


  G5
   S  S  S  S  S  S  S  S  S  S  S  S  S  S  S  S
|-------------------------------------------------|
|-------------------------------------------------|
|--------------------------4--4-------------------|
|--5--5--4--4--5--5--7--7--------7--7--5--5--4--4-|
|-------------------------------------------------|
|-------------------------------------------------|
|
|  S  S  S  S  S  S  S  S  S  S  S  S  S  S  S  S
|-------------------------------------------------|
|-------------------------------------------------|
|-------------------14-14-16-16-14-14-------------|
|-17-17-16-16-17-17-------------------17-17-16-16-|
|-------------------------------------------------|
|-------------------------------------------------|
|
|  S  S  S  S  S  S  S  S  S  S  S  S  S  S  S  S
|-------------------------------------------------|
|-------------------------------------------------|
|-------------------------------------------------|
|-------------------------------------------------|
|-------------------------------------------------|
|--3--3--3--3--3--3--3--3--3--3--3--3--3--3--3--3-|


  C5
   S  S  S  S  S  S  S  S  S  S  S  S  S  S  S  S
|-------------------------------------------------|
|--------------------3--3--5--5--3--3-------------|
|--5--5--4--4--5--5--------------------5--5--4--4-|
|-------------------------------------------------|
|-------------------------------------------------|
|-------------------------------------------------|
|
|  S  S  S  S  S  S  S  S  S  S  S  S  S  S  S  S
|-------------------------------------------------|
|-------------------15-15-17-17-15-15-------------|
|-17-17-16-16-17-17-------------------17-17-16-16-|
|-------------------------------------------------|
|-------------------------------------------------|
|-------------------------------------------------|
|
|  S  S  S  S  S  S  S  S  S  S  S  S  S  S  S  S
|-------------------------------------------------|
|-------------------------------------------------|
|-------------------------------------------------|
|-------------------------------------------------|
|--3--3--3--3--3--3--3--3--3--3--3--3--3--3--3--3-|
|-------------------------------------------------|


  F5                                                G5
   S  S  S  S  S  S  S  S  S  S  S  S  S  S  S  S    W
|-------------------------------------------------|-------|
|--6--6--5--5--6--6--8--8-10-10--8--8--6--8--6----|--8----|
|-----------------------------------------------9-|-------|
|-------------------------------------------------|-------|
|-------------------------------------------------|-------|
|-------------------------------------------------|-------|
|
|  S  S  S  S  S  S  S  S  S  S  S  S  S  S  S  S    W
|-------------------15-15-17-17-15-15-13-15-13-12-|-15----|
|-18-18-17-17-18-18-------------------------------|-------|
|-------------------------------------------------|-------|
|-------------------------------------------------|-------|
|-------------------------------------------------|-------|
|-------------------------------------------------|-------|
|
|  S  S  S  S  S  S  S  S  S  S  S  S  S  S  S  S    W
|-------------------------------------------------|-------|
|-------------------------------------------------|-------|
|-------------------------------------------------|-------|
|-------------------------------------------------|-12----|
|--8--8--8--8--8--8--8--8--8--8--8--8--8--8--8--8-|-10----|
|-------------------------------------------------|-10----|


   Verse 4
    A5
    E S S S S S S S S S S S S S S   E S S S S S S S S S S S S S S
||--------------------------------|--------------------------------|
||o-------------------------------|--------------------------------|
||--2-----------------------------|-2------------------------------|
||--2-----------------------------|-2------------------------------|
||o-0-0-0-0-0-0-0-0-0-0-0-0-0-0-0-|-0-0-0-0-0-0-0-0-0-0-0-0-0-0-0--|
||--------------------------------|--------------------------------|


  F5                              G5
  E S S S S S S S S S S S S S S   E S S S S S S S S S S S S S S
|-------------------------------|---------------------------------||
|-------------------------------|--------------------------------o||
|-------------------------------|---------------------------------||
|-3-----------------------------|-5-------------------------------||
|-3-----------------------------|-5------------------------------o||
|-1-1-1-1-1-1-1-1-1-1-1-1-1-1-1-|-3-3-3-3-3-3-3-3-3-3-3-3-3-3-3---||


  F5                              G5
  E S S S S S S S S S S S S S S   E S S S S S S S S S S S S S S
|-------------------------------|--------------------------------|
|-------------------------------|--------------------------------|
|-------------------------------|--------------------------------|
|-3-----------------------------|-5------------------------------|
|-3-----------------------------|-5------------------------------|
|-1-1-1-1-1-1-1-1-1-1-1-1-1-1-1-|-3-3-3-3-3-3-3-3-3-3-3-3-3-3-3--|


  E5                              F5
  E S S S S S S S S S S S S S S   E S S S S S S S S S S S S S S
|-------------------------------|--------------------------------|
|-------------------------------|--------------------------------|
|-------------------------------|--------------------------------|
|-2-----------------------------|-3------------------------------|
|-2-----------------------------|-3------------------------------|
|-0-0-0-0-0-0-0-0-0-0-0-0-0-0-0-|-1-1-1-1-1-1-1-1-1-1-1-1-1-1-1--|


  F5         G5
  W          W
|----------|------|
|----------|------|
|----------|------|
|-3--------|-5----|
|-3--------|-5----|
|-1--------|-3----|


 Chorus
  A5         F5         G5         E5
  W          W          W          W
|----------|----------|----------|------|
|----------|----------|----------|------|
|-2--------|----------|----------|------|
|-2--------|-3--------|-5--------|-2----|
|-0--------|-3--------|-5--------|-2----|
|----------|-1--------|-3--------|-0----|


  A5         F5         C5         E5
  W          W          W          W
|----------|----------|----------|------|
|----------|----------|----------|------|
|-2--------|----------|-5--------|------|
|-2--------|-3--------|-5--------|-2----|
|-0--------|-3--------|-3--------|-2----|
|----------|-1--------|----------|-0----|


  A5                              F5
  E S S S S S S S S S S S S S S   E S S S S S S S S S S S S S S
|-------------------------------|--------------------------------|
|-------------------------------|--------------------------------|
|-2-----------------------------|--------------------------------|
|-2-----------------------------|-3------------------------------|
|-0-0-0-0-0-0-0-0-0-0-0-0-0-0-0-|-3------------------------------|
|-------------------------------|-1-1-1-1-1-1-1-1-1-1-1-1-1-1-1--|


  C5                              E5
  E S S S S S S S S S S S S S S   E S S S S S S S S S S S S S S
|-------------------------------|--------------------------------|
|-------------------------------|--------------------------------|
|-5-----------------------------|--------------------------------|
|-5-----------------------------|-2------------------------------|
|-3-3-3-3-3-3-3-3-3-3-3-3-3-3-3-|-2------------------------------|
|-------------------------------|-0-0-0-0-0-0-0-0-0-0-0-0-0-0-0--|


  A5                              F5
  E S S S S S S S S S S S S S S   E S S S S S S S S S S S S S S
|-------------------------------|--------------------------------|
|-------------------------------|--------------------------------|
|-2-----------------------------|--------------------------------|
|-2-----------------------------|-3------------------------------|
|-0-0-0-0-0-0-0-0-0-0-0-0-0-0-0-|-3------------------------------|
|-------------------------------|-1-1-1-1-1-1-1-1-1-1-1-1-1-1-1--|


  G5         G#5        A5
                                    >
  W          W          W          +W
|----------|----------|----------|--------|
|----------|----------|----------|--------|
|----------|----------|-2--------|-(2)----|
|-5--------|-6--------|-2--------|-(2)----|
|-5--------|-6--------|-0--------|-(0)----|
|-3--------|-4--------|----------|--------|


 Outro
  Am
  +W                    +W
|---------------------|----------------------|
|---------------------|----------------------|
|-(2)-----------------|-(2)------------------|
|-(2)-----------------|-(2)------------------|
|-(0)-----------------|-(0)------------------|
|---------------------|----------------------|
|
| Gtr IV
|  E  E E E E E +E  E   +E  E +E  E +E  E Q
|---------------------|----------------------|
|---------0-0-1-(1)-3-|-(3)-1-(1)-0-(0)-1----|
|-------2-------------|-------------------0--|
|-----2---------------|----------------------|
|--0------------------|----------------------|
|---------------------|----------------------|


  C                  Em/B   Em/Bb
        W              W
|------------------|---------------|
|------------------|---------------|
|------------------|---------------|
|------------------|---------------|
|------------------|---------------|
|------------------|---------------|
|
| E E E E +E  E Q    E E Q  E E Q
|------------------|---------------|
|-------0-(0)-1----|---------------|
|-----0---------0--|-----0------0--|
|---2--------------|---2------2----|
|-3----------------|-2------1------|
|------------------|---------------|


    Am
    Gtr IV
    E E E E E E +E  E   +E  E +E  E +E  E Q
||--------------------|----------------------|
||o-------0-0-1-(1)-3-|-(3)-1-(1)-0-(0)-1----|
||------2-------------|-------------------0--|
||----2---------------|----------------------|
||o-0-----------------|----------------------|
||--------------------|----------------------|


  C                  Em/B   Em/Bb
  E E E E +E  E Q    E E Q  E E Q  4x
|------------------|---------------||
|-------0-(0)-1----|--------------o||
|-----0---------0--|-----0------0--||
|---2--------------|---2------2----||
|-3----------------|-2------1-----o||
|------------------|---------------||


  Am
  E E E E E E +E  E   +E  E +E  E +E  E Q
|-------------------|----------------------|
|-------0-0-1-(1)-3-|-(3)-1-(1)-0-(0)-1----|
|-----2-------------|-------------------0--|
|---2---------------|----------------------|
|-0-----------------|----------------------|
|-------------------|----------------------|


  C                  Em/B   Em/Bb
  E E E E +E  E Q    E E Q  E E Q   +W
|------------------|--------------|------*|
|-------0-(0)-1----|--------------|------*|
|-----0---------0--|-----0------0-|-(0)--*|
|---2--------------|---2------2---|------*|
|-3----------------|-2------1-----|------*|
|------------------|--------------|------*|




--------------------------------------------------------------------------------


Duration Legend
---------------
W - whole; H - half; Q - quarter; E - 8th; S - 16th; T - 32nd; X - 64th; a - acciaccatura
+ - note tied to previous; . - note dotted; .. - note double dotted
Uncapitalized letters represent notes that are staccato (1/2 duration)
Irregular groupings are notated above the duration line
Duration letters will always appear directly above the note/fret number it represents the
duration for.  Duration letters with no fret number below them represent rests.  Multi-
bar rests are notated in the form Wxn, where n is the number of bars to rest for.  Low
melody durations appear below the staff

Tablature Legend
----------------
 h   - hammer-on
 p   - pull-off
 b   - bend
 pb  - pre-bend
 r   - bend release (if no number after the r, then release immediately)
 /\  - slide into or out of (from/to "nowhere")
 s   - legato slide
 S   - shift slide
 - natural harmonic
[n]  - artificial harmonic
n(n) - tapped harmonic
 ~   - vibrato
 tr  - trill
 T   - tap
 TP  - trem. picking
 PM  - palm muting
\n/  - tremolo bar dip; n = amount to dip
 \n  - tremolo bar down
 n/  - tremolo bar up
/n\  - tremolo bar inverted dip
 =   - hold bend; also acts as connecting device for hammers/pulls
 <> - volume swell (louder/softer)
 x   - on rhythm slash represents muted slash
 o   - on rhythm slash represents single note slash

Misc Legend
-----------
 |  - bar
||  - double bar
||o - repeat start
o|| - repeat end
*|  - double bar (ending)
 :  - bar (freetime)
 $  - Segno
 &  - Coda
Tempo markers -  = BPM(8/16=s8/s16), where s8 = swing 8ths, s16 = swing 16ths


Tap to rate this tab
# A B C D E F G H I J K L M N O P Q R S T U V W X Y Z