Song name
# A B C D E F G H I J K L M N O P Q R S T U V W X Y Z

Blind Guardian - Nightfall tab

#----------------------------------PLEASE NOTE---------------------------------#
#This file is the author's own work and represents their interpretation of the #
#song. You may only use this file for private study, scholarship, or research. #
#------------------------------------------------------------------------------#

NIGHTFALL
As recorded by Blind Guardian
(From the 1998 Album NIGHTFALL IN MIDDLE-EARTH)


Transcribed by James C

 Words and Music by Blind Guardian
Arranged by Blind Guardian
 

B/Ab
x x 7 5 5 x Bb5
x 2 4 4 x x F5
2 4 4 x x x F#5
3 5 5 x x x 


Gtr I (Eb Ab Db Gb Bb Eb) - 'Lead Gtr'
Gtr II (Eb Ab Db Gb Bb Eb) - 'Rhythm Gtr'
Gtr III (Eb Ab Db Gb Bb Eb) - 'Acoustic Gtr'
Gtr IV (Eb Ab Db Gb Bb Eb) - 'Flute'
Gtr V (Eb Ab Db Gb Bb Eb) - 'Pizzicato Strings (for Outro only)'
Gtr VI (Eb Ab Db Gb Bb Eb) - 'Music Box (for Outro only)'


 Intro
  Q=96
  A5                F    Fm         A5                Dsus2/E
 6/8
  Gtr I
   Q.      E  E E    H       E  E    Q.      Q.        H.
|-----------------|---------------|-----------------|------------|
|-----------------|---------------|-----------------|------------|
|-----------------|---------------|-----------------|------------|
|-----------------|---------------|-----------------|------------|
|----------7----7-|--8------------|-----------------|------------|
|--5----------5---|----------8--7-|--5-------5------|--7---------|
|
| Gtr III
|  E. S E  E  E E    E E Q   E  E    E. S E  E  E E    E  E H
|----------0------|--1------------|----------0------|------------|
|-------1-----1---|----1-----1--0-|-------1-----1---|--3--0------|
|--2--2---------2-|------1--------|--2--2---------2-|-------1----|
|--2--------------|--3---3--------|--2--------------|-------2----|
|--0--------------|---------------|--0--------------|-------2----|
|-----------------|---------------|-----------------|--0----0----|
|
| Gtr IV
|  Q.      Q.        H       E  E    Q.      Q.        H.
|---------12------|-13------12-10-|---------12------|-10---------|
|-10--------------|---------------|-13------13------|------------|
|-----------------|---------------|-----------------|------------|
|-----------------|---------------|-----------------|------------|
|-----------------|---------------|-----------------|------------|
|-----------------|---------------|-----------------|------------|


  F          F5   E          Am/C G/F/A  G/B  E
   H       E  E    H.         H        E  E    H.
|---------------|----------|----------------|------------||
|---------------|----------|----------------|------------||
|---------------|----------|----------------|------------||
|---------------|----------|--7-------------|------------||
|--8-------7--5-|--7-------|-----------8-10-|--7---------||
|---------------|----------|----------------|------------||
|
|  Q  E Q     E    H.         Q   E Q     E    H     E E
|--1--0---------|--0-------|--5---3-1-----3-|--0---------||
|--1----3-----1-|--0-------|----------------|--0---------||
|--2------------|--1-------|--5---4-2-----4-|--1---------||
|--3----------3-|--2-------|----------------|--2---------||
|---------------|--2-------|----------------|--2-----3-2-||
|---------------|--0-------|----------------|--0---------||
|
|  H       E  E    H.         H        E  E    H.
|-13------12-10-|-12-------|-17-------13-15-|------------||
|---------------|----------|-13-------------|-17---------||
|---------------|----------|----------------|------------||
|---------------|----------|----------------|------------||
|---------------|----------|----------------|------------||
|---------------|----------|----------------|------------||
                              H.


 1st Verse
  A5             F   Fm       A5              Dsus2EE
  Q.     E E E   H      E E   Q.     Q.       H.
|--------------|------------|---------------|-----------|
|--------------|------------|---------------|-----------|
|--------------|------------|---------------|-----------|
|--------------|------------|---------------|-----------|
|--------7---7-|-8----------|---------------|-----------|
|-5--------5---|--------8-7-|-5------5------|-7---------|
|
| E. S E E E E   E E Q  E E   E. S E E  E E   E  E H
|--------0-----|-1----------|--------0------|-----------|
|------1---1---|---1----1-0-|------1----1---|-3--0------|
|-2--2-------2-|-----1------|-2--2--------2-|------1----|
|-2------------|-3---3------|-2-------------|------2----|
|-0------------|------------|-0-------------|------2----|
|--------------|------------|---------------|-0----0----|


  F        F5  E         Am/G/F/A G/B  E
  H      E E   H.        H      E  E   H.
|------------|---------|-------------|-----------|
|------------|---------|-------------|-----------|
|------------|---------|-------------|-----------|
|------------|---------|-7-----------|-----------|
|-8------7-5-|-7-------|--------8-10-|-7---------|
|------------|---------|-------------|-----------|
|
| Q  E Q   E   H.        Q  E Q    E   H     E E
|-1--0-------|-0-------|-5--3-1----3-|-0---------|
|-1----3---1-|-0-------|-------------|-0---------|
|-2----------|-1-------|-5--4-2----4-|-1---------|
|-3--------3-|-2-------|-------------|-2---------|
|------------|-2-------|-------------|-2-----3-2-|
|------------|-0-------|-------------|-0---------|


    A5                 F5
    E.   S E E E   E    E.    S  E  E T  T S E
||-------------------|-------------------------|
||o------------------|-------------------------|
||-------9-9-9-7---9-|-10----10-10-10-9h10p9-7-|
||--7----------------|-------------------------|
||o------------------|-------------------------|
||-------------------|-------------------------|
|
|   Gtr II
|   E  S S E E S S E    E  S  S  E  E S    S E
||-------------------|-------------------------|
||o------------------|-------------------------|
||--2--------2-------|-------------------------|
||--2--------2-------|--3-----------3----------|
||o-0--0-0-0-0-0-0-0-|--3-----------3----------|
||-------------------|--1--1--1--1--1-1----1-1-|


                     1.                     2.
  A5                  G5                     G5
  E.   S E E  E   E    E.   S E E  E   E      E.    S E E E    E
|-------------------|---------------------||---------------------|
|-------------------|--------------------o||---------------------|
|-9-----------------|-------7-7-7---------||---------------------|
|------7-7-7--------|-------------10---9--||----------7-9-7------|
|------------10---7-|-10-----------------o||-10----10---------10-|
|-------------------|---------------------||---------------------|
|
| E  S S E E  S S E    E  S S E E  S S E      E  S  S E E S S  E
|-------------------|---------------------||---------------------|
|-------------------|--------------------o||---------------------|
|-2--------2--------|---------------------||---------------------|
|-2--------2--------|--5--------5---------||--5---------5--------|
|-0--0-0-0-0--0-0-0-|--5--------5--------o||--5---------5--------|
|-------------------|--3--3-3-3-3--3-3-3--||--3--3--3-3-3-3-3--3-|


  A5            F5               A5        G5
                                                          |-3-|
  H     Q       H     E +E       H.        E  +E    +E  E S S S E
|-------------|----------------|---------|-------------------------|
|-------8b10--|-8--------------|---------|-------------------------|
|-9-----------|-------9-(9)b10-|-9-------|-7--(7)b9r(7)-5-4h5p4----|
|-------------|----------------|---------|----------------------5--|
|-------------|----------------|---------|-------------------------|
|-------------|----------------|---------|-------------------------|
|
| H.            H.               H.        H.
|-------------|----------------|---------|-------------------------|
|-------------|----------------|---------|-------------------------|
|-------------|----------------|---------|-------------------------|
|-7-----------|-3--------------|-7-------|-5-----------------------|
|-7-----------|-3--------------|-7-------|-5-----------------------|
|-5-----------|-1--------------|-5-------|-3-----------------------|


  A5               F5                 A5             G5
         |-3-|              |-3-|                         |-3--|
  Q.   E S S S E   E  E E E S S S E   E  E E E E E   E  E S  S S  E E E
|----------------|------------------|--------------|----8-7h=8p7--------|
|----------------|------------------|--------------|---10-8h10p8-10-8-6-|
|------5-4h5p4---|----4-5-7-5h7p5-4-|----4-5-7-5-4-|-------------10-9-7-|
|-7------------7-|-7----------------|-7------------|-5------------------|
|----------------|------------------|--------------|--------------------|
|----------------|------------------|--------------|--------------------|
|
| H.               H.                 H.             E  E E       E E E
|----------------|------------------|--------------|--------------------|
|----------------|------------------|--------------|--------------------|
|----------------|------------------|--------------|--------------------|
|-7--------------|-3----------------|-7------------|-5--5-5-------5-5-5-|
|-7--------------|-3----------------|-7------------|-5--5-5-------5-5-5-|
|-5--------------|-1----------------|-5------------|-3--3-3-------3-3-3-|


    B5            A5                B5           A5
    Q.       S  S  S S  S  +S        +H           E  E
||--------------------------------|--------------------|
||o------------------8-10-(10)b12r|=(10)---------------|
||--7--------7--9-11-9-11-(11)b12r|=(11)------------11-|
||--9--------9-11-12--------------|--------------12----|
||o-------------------------------|--------------------|
||--------------------------------|--------------------|
|
|   E  S S E E     E    E             E  S S E E  E  E
||--------------------------------|--------------------|
||o-------------------------------|--------------------|
||--4--------4-----2----2---------|---4--------4--2--2-|
||--4--------4-----2----2---------|---4--------4--2--2-|
||o-2--2-2-2-2-----0----0---------|---2--2-2-2-2--0--0-|
||--------------------------------|--------------------|


  D5                               A5                  F#5
                       |-3--|
   E  +E        +E   E S  S S  E   E +E       +E  S  S  S S  S  S
|-------------------10-9h10p9----|----------------------------------||
|-10-(10)b12r==(10)-----------10-|----------------8-10----8--------o||
|--------------------------------|-9-(9)b11r==(9)-9-11-11-9--9-11---||
|--------------------------------|---------------------12---11-12---||
|--------------------------------|---------------------------------o||
|--------------------------------|----------------------------------||
|
|  E   S     S   E   E E       E   E  S     S  E  E     E    E
|--------------------------------|----------------------------------||
|--------------------------------|---------------------------------o||
|--7-----------------7-7-------7-|----------------------------------||
|--7-----------------7-7-------7-|-7--------------7-----4----4------||
|--5---5-----5---5---5-5-------5-|-7--------------7-----4----4-----o||
|--------------------------------|-5--5-----5--5--5-----2----2------||


   Chorus
    $
    B5         G5        D5          E5   F#5
    Gtrs I, II
     H.        H.        H.          Q.   Q.
||-----------|---------|-----------|------------||
||o----------|---------|-----------|-----------o||
||---4-------|---------|-7---------|------------||
||---4-------|-5-------|-7---------|-2----4-----||
||o--2-------|-5-------|-5---------|-2----4----o||
||-----------|-3-------|-----------|-0----2-----||
|
|   Gtr IV
|    H.        H.        Q.   Q.     Q.   Q.
||--10-------|-7-------|-2----5----|-7----9-----||
||o----------|---------|-----------|-----------o||
||-----------|---------|-----------|------------||
||-----------|---------|-----------|------------||
||o----------|---------|-----------|-----------o||
||-----------|---------|-----------|------------||


                                    To Coda
  B5         G5        D5   G5     D5   A5
   H.        H.        Q.   Q.     Q.   Q.
|----------|---------|-----------|-----------||
|----------|---------|-----------|-----------||
|--4-------|---------|-7---------|-7---------||
|--4-------|-5-------|-7----5----|-7----7----||
|--2-------|-5-------|-5----5----|-5----7----||
|----------|-3-------|------3----|------5----||
|
|  H.        H.        Q.   Q.     H.
|-10-------|-7-------|-2----3----|-2---------||
|----------|---------|-----------|-----------||
|----------|---------|-----------|-----------||
|----------|---------|-----------|-----------||
|----------|---------|-----------|-----------||
|----------|---------|-----------|-----------||


 Bridge
  N.C.            B5        C5             B5
  Gtr I
                                 |--3--|
  S  S  S  S S  S  E E  E    E   S  S  S E  Q    E
|---------10-9------------|------------------------|
|--------------10------12-|------------------------|
|------11---------11------|-12--11h12p11-9-11---11-|
|-9-12---------------9----|----------------------4-|
|-------------------------|------------------------|
|-------------------------|------------------------|
|
| Gtr II
| S  S  S  S S  S  E E  E    Q.             Q.
|-------------------------|------------------------|
|-------------------------|------------------------|
|------------------4-4--4-|--5--------------4------|
|------------------4-4--4-|--5--------------4------|
|-2--2--2--2-2--2--2-2--2-|--3--------------2------|
|-------------------------|------------------------|


  E5             B5        C5             F#5
       |--3--|                  |--3--|
   E   S  S  S E  Q    E    E   S  S  S E  Q.
|------------------------|----------------------|
|------------------------|----------------------|
|-12--11h12p11-9-11---11-|-12--11h12p11-9-------|
|----------------------4-|----------------11----|
|--7---5h=7p=5-4--5------|--7---5h=7p=5-4-------|
|------------------------|-----------------6----|
|
|  Q.             Q.        Q.             Q.
|------------------------|----------------------|
|------------------------|----------------------|
|--9--------------4------|--5-------------------|
|--9--------------4------|--5--------------4----|
|--7--------------2------|--3--------------4----|
|------------------------|-----------------2----|


  N.C.           B5        N.C.              D5
   S  S S S S  S  Q    E    S  S  S  S  S  S  Q    S  S
|------------------------|------------------------------|
|------------------------|------------------------15-15-|
|-11-------------11---12-|-11-12-11----------11---------|
|----12-9---9-12---------|----------12----12------------|
|---------9--------------|-------------12---------------|
|------------------------|------------------------------|
|
|  S  S S S S  S  Q.        S  S  S  S  S  S  Q.
|------------------------|------------------------------|
|------------------------|------------------------------|
|-----------------4------|--------------------7---------|
|-----------------4------|--------------------7---------|
|--2--2-2-2-2--2--2------|--5--5--5--5--5--5--5---------|
|------------------------|------------------------------|


  N.C.              A5           C5              C5
   S  S  S  S  S  S  Q    S  S    E   E     S  S  E   E  E
|------------------------------|------------------------------||
|-15-14-14-12-12---------12-12-|-13--13b15-13-12-13--12-------||
|----------------14-14---------|------------------------14\---||
|------------------------------|------------------------------||
|------------------------------|------------------------------||
|------------------------------|------------------------------||
|
|  S  S  S  S  S  S  Q.           Q.              Q.
|------------------------------|------------------------------||
|------------------------------|------------------------------||
|------------------------------|--5---------------5-----------||
|--------------------7---------|--5---------------5-----------||
|--------------------7---------|--3---------------3-----------||
|--5--5--5--5--5--5--5---------|------------------------------||


   2nd Verse
    B5     D5       A5              B5     D5       A5
                                                         |-3-|
    E. S E E. S E   S  S H    +E    E. S E E. S E   E  E S S S Q.
||----------------|---------------|---------------|-5----------------||
||o----7-5----5-7-|-5-------------|----7-5----5-7-|----5-3h5p3------o||
||--4------7------|----6----------|-4------7------|------------6-----||
||----------------|------7----(7)-|---------------|------------------||
||o---------------|---------------|---------------|-----------------o||
||----------------|---------------|---------------|------------------||
|
|   Q.     Q.       H.              Q.     Q.       H.
||----------------|---------------|---------------|------------------||
||o---------------|---------------|---------------|-----------------o||
||--4------7------|---------------|-4------7------|------------------||
||--4------7------|-7-------------|-4------7------|-7----------------||
||o-2------5------|-7-------------|-2------5------|-7---------------o||
||----------------|-5-------------|---------------|-5----------------||


  N.C.
   H.                   E  S  S  S  S  S  S  S  S  S  S
|--------------------|----------------14-16-17-16-14----|
|-14-----------------|-14----14-16-17----------------17-|
|--------------------|----16----------------------------|
|--------------------|----------------------------------|
|--------------------|----------------------------------|
|--------------------|----------------------------------|
|
|  PM----------------------------------------------------
|  E   E  E  E  E  E    E  E     E     E     Q
|--------------------|----------------------------------|
|--------------------|----------------------------------|
|-----13-------11----|----13----------------11----------|
|-11-----14-13----13-|-11-------14----13----------------|
|--------------------|----------------------------------|
|--------------------|----------------------------------|


   H.                   +H.
|--------------------|--------------------|
|-14-----------------|-(14)---------------|
|--------------------|--------------------|
|--------------------|--------------------|
|--------------------|--------------------|
|--------------------|--------------------|
|
|------------------------------------|~~
|  E   E  E  E  E  E     E   E  E  E  Q
|--------------------|--------------------|
|--------------------|--------------------|
|-----13-------11----|------13-------11---|
|-11-----14-13----13-|--11-----14-13------|
|--------------------|--------------------|
|--------------------|--------------------|


  A5
  H.         H     E E    E.  S E  E. S E
|---------|------------|------------------|
|---------|------------|-12--10-9-10--9---|
|---------|----------9-|----------------9-|
|---------|------------|------------------|
|---------|------------|------------------|
|---------|------------|------------------|
|
| H.        +H.          +H.
|---------|------------|------------------|
|---------|------------|------------------|
|-2-------|-(2)--------|-(2)--------------|
|-2-------|-(2)--------|-(2)--------------|
|-0-------|-(0)--------|-(0)--------------|
|---------|------------|------------------|


   E.  S E Q  E    E.  S E  E. S E    E.  S E Q.
|---------------|------------------|---------------|
|-12--10-9------|-12--10-9-10--9---|-12--10-9------|
|----------9--9-|----------------9-|----------9----|
|---------------|------------------|---------------|
|---------------|------------------|---------------|
|---------------|------------------|---------------|
|
| +H.             +H.                +H.
|---------------|------------------|---------------|
|---------------|------------------|---------------|
|-(2)-----------|-(2)--------------|-(2)-----------|
|-(2)-----------|-(2)--------------|-(2)-----------|
|-(0)-----------|-(0)--------------|-(0)-----------|
|---------------|------------------|---------------|


                                        D.S. al Coda
    B5            A5   E5     B5            A5   E5
    Gtr II
    E +Q.    Q    Q.   Q.     E +Q.    Q    Q.   Q.
||--------------|-----------|-------------|------------||
||o-------------|-----------|-------------|-----------o||
||--------------|------9----|-------------|------9-----||
||--9-(9)\------|-7----9----|-9-(9)\------|-7----9-----||
||o-9-(9)\------|-7----7----|-9-(9)\------|-7----7----o||
||--7-(7)\------|-5---------|-7-(7)\------|-5----------||


 Bridge
  &
  N.C.B5                 B5/F#        F#5
  Gtr I
  E    E E  E  E     E   T T  T  T  E E  T  T  T  T  E  E
|----------------------|----------------------------------|
|----------------------|----------------------------------|
|-----11-9-11-11b12-11-|-9-9-12-12-11-9-------------------|
|-9--------------------|----------------11-11-14-14-12-11-|
|----------------------|----------------------------------|
|----------------------|----------------------------------|
|
| Gtr II
| S S  E E  E  E     E   S    S     E E  S     S     E  E
|----------------------|----------------------------------|
|----------------------|----------------------------------|
|----------------------|----------------------------------|
|------4----4--4-----4-|----------------------------------|
|-2-2--2-2--2--2-----2-|-2----2-------4-----------------4-|
|----------------------|-2----2-----2-2--2-----2-----2--2-|


  N.C.B5                 B5/F#        F#5
  E    E E  E  E     E   T T  T  T  E E  T  T  T  T  E  E
|----------------------|----------------------------------|
|----------------------|----------------------------------|
|-----11-9-12-12b14-11-|-9-9-12-12-11-9-------------------|
|-9--------------------|----------------11-11-14-14-12-11-|
|----------------------|----------------------------------|
|----------------------|----------------------------------|
|
| S S  E E  E  E     E   S    S     E E  S     S     E  E
|----------------------|----------------------------------|
|----------------------|----------------------------------|
|----------------------|----------------------------------|
|------4----4--4-----4-|----------------------------------|
|-2-2--2-2--2--2-----2-|-2----2-------4-----------------4-|
|----------------------|-2----2-----2-2--2-----2-----2--2-|


  D5           G5               D5             A5
                                 |--3--|
   E   S  S  E  E   +E      E    S  S  S  E  E  E   E  E
|-----------------------------|--------------------------|
|-----------------------------|--------------------------|
|-----11----11-12--(12)b14-12-|-11h12p11----11-----------|
|-12-----12-------------------|----------12----14--11----|
|-----------------------------|-----------------------12-|
|-----------------------------|--------------------------|
|
|  Q.           Q.               Q.             Q.
|-----------------------------|--------------------------|
|-----------------------------|--------------------------|
|--7--------------------------|--7-----------------------|
|--7------------5-------------|--7--------------7--------|
|--5------------5-------------|--5--------------7--------|
|---------------3-------------|-----------------5--------|


  D5           G5                D5        A5
                       |--3--|
   E   S  S  E  E   E  S  S  S    E   E  E  E   E  E
|------------------------------|---------------------||
|------------------------------|---------------------||
|-----11----11-12--14-12h14p12-|-11-----11-----------||
|-12-----12--------------------|-----12----14--11----||
|------------------------------|------------------12-||
|------------------------------|---------------------||
|
|  Q.           Q.                Q.        Q.
|------------------------------|---------------------||
|------------------------------|---------------------||
|--7---------------------------|--7------------------||
|--7------------5--------------|--7---------7--------||
|--5------------5--------------|--5---------7--------||
|---------------3--------------|------------5--------||


 Interlude
  B5                F#5          A5           E5
                     ~~~
   E   e  S  +S      Q    S  S    E.  S  S  S  E   E  E
|-----14-14-(14)b16-14------11-|-12--14-12-11-12--------|
|-12---------------------14----|------------------12-14-|
|------------------------------|------------------------|
|------------------------------|------------------------|
|------------------------------|------------------------|
|------------------------------|------------------------|
|
|  Q.                Q.           Q.           Q.
|------------------------------|------------------------|
|------------------------------|------------------------|
|--4---------------------------|--2---------------------|
|--4-----------------4---------|--2------------2--------|
|--2-----------------4---------|--0------------2--------|
|--------------------2---------|---------------0--------|


  B5                F#5          E5           G5
                     ~~~
   E   e  S  +S      Q    S  S    E.  S  S  S  Q.
|-----14-14-(14)b16-14------11-|-12--14-12-11-------|
|-12---------------------14----|--------------12----|
|------------------------------|--------------------|
|------------------------------|--------------------|
|------------------------------|--------------------|
|------------------------------|--------------------|
|
|  Q.                Q.           Q.           Q.
|------------------------------|--------------------|
|------------------------------|--------------------|
|--4---------------------------|--------------------|
|--4-----------------4---------|--2------------5----|
|--2-----------------4---------|--2------------5----|
|--------------------2---------|--0------------3----|


  E5       G5               B5       D5
                |--3--|              |-3-|
  E.  S  E  E   S  S  S E   E    E E S S S E E
|-------------------------|--------------------|
|----12-10----------------|--------8-7h8p7-----|
|----------12--11h12p11-9-|-9b11-7---------7---|
|-9-----------------------|------------------7-|
|-------------------------|--------------------|
|-------------------------|--------------------|
|
| Q.        Q.              Q.       Q.
|-------------------------|--------------------|
|-------------------------|--------------------|
|-------------------------|-4--------7---------|
|-2---------5-------------|-4--------7---------|
|-2---------5-------------|-2--------5---------|
|-0---------3-------------|--------------------|


  E5             G5        B5              D5
  E   S  S  S  S E   E E    E   S  S  S  S  Q.
|------------------------|------------------------|
|----12-10---------------|-12--12-10--------------|
|----------12-11-9-----9-|-----------11-12-11-----|
|-9-----------------12---|------------------------|
|------------------------|------------------------|
|------------------------|------------------------|
|
| Q.             Q.         Q.              Q.
|------------------------|------------------------|
|------------------------|------------------------|
|------------------------|--4---------------7-----|
|-2--------------5-------|--4---------------7-----|
|-2--------------5-------|--2---------------5-----|
|-0--------------3-------|------------------------|


  G5                E5                  F#5              B5
   S   S  S  S S  S S   S  S  S S  S     S   S S  S S  S  S  S  S  S  S  S
|-------------------------------------|--------9-10-9--------9-10-12-14-10-|
|-12--10------------------------------|-----11--------11-12----------------|
|--------12-11-9----9--11-12-11-9-----|-11---------------------------------|
|----------------12---------------12\-|------------------------------------|
|-------------------------------------|------------------------------------|
|-------------------------------------|------------------------------------|
|
|  Q.               Q.                   Q.               Q.
|-------------------------------------|------------------------------------|
|-------------------------------------|------------------------------------|
|-------------------------------------|-------------------4----------------|
|--5----------------2-----------------|--4----------------4----------------|
|--5----------------2-----------------|--4----------------2----------------|
|--3----------------0-----------------|--2---------------------------------|


  A5              D5            G5                    F#5
                                                            ~~~~~~~
   E   S  S  S  S  E     E  E    S   T  T  S  S  S  S  E   +Q
|-----------------------------|-19--17h19---------------------------|
|-----14----14-15-17b19-15----|-20--19h20-20-19-17-19-20--(20)b22---|
|-14-----14----------------14-|-----------21-19-18-19-21--(21)b23---|
|-----------------------------|-------------------------------------|
|-----------------------------|-------------------------------------|
|-----------------------------|-------------------------------------|
|
|  Q.              Q.            Q.                    Q.
|-----------------------------|-------------------------------------|
|-----------------------------|-------------------------------------|
|------------------7----------|-------------------------------------|
|--7---------------7----------|--5---------------------4------------|
|--7---------------5----------|--5---------------------4------------|
|--5--------------------------|--3---------------------2------------|


  B5          E5           A5          D5
   E  S  S  E  E  E    E    E  S  S  E  E  E    E
|----14-15-14-12---------|----12-14-12-10---------|
|-12-15-17-15-14-15---14-|-10-14-15-14-12-14---10-|
|-11-------------16---14-|--9-------------14---11-|
|------------------------|------------------------|
|------------------------|------------------------|
|------------------------|------------------------|
|
|  E  S  S  E  E  S S  E    E  S  S  E  E  S S  E
|------------------------|------------------------|
|------------------------|------------------------|
|--------------9-------9-|--------------7-------7-|
|--9--------9--9-------9-|--7--------7--7-------7-|
|--9--------9--7--7-7--7-|--7--------7--5--5-5--5-|
|--7--7--7--7------------|--5--5--5--5------------|


  B5          E5           A5          D5
   E  S  S  E  E  E    E    E  S  S  E  E  E    E
|----14-15-14-12---------|----12-14-12-10----------||
|-12-15-17-15-14-15---14-|-10-14-15-14-12-14---10--||
|-11-------------16---14-|--9-------------14---11--||
|------------------------|-------------------------||
|------------------------|-------------------------||
|------------------------|-------------------------||
|
|  E  S  S  E  E  S S  E    E  S  S  E  E  S S  E
|------------------------|-------------------------||
|------------------------|-------------------------||
|--------------9-------9-|--------------7-------7--||
|--9--------9--9-------9-|--7--------7--7-------7--||
|--9--------9--7--7-7--7-|--7--------7--5--5-5--5--||
|--7--7--7--7------------|--5--5--5--5-------------||


   3rd Verse
    B5            A5                B5           A5
    Q.       S  S  S S  S  +S        +H           E  E
||--------------------------------|--------------------|
||o------------------8-10-(10)b12r|=(10)---------------|
||--7--------7--9-11-9-11-(11)b12r|=(11)------------11-|
||--9--------9-11-12--------------|--------------12----|
||o-------------------------------|--------------------|
||--------------------------------|--------------------|
|
|   E  S S E E     E    E             E  S S E E  E  E
||--------------------------------|--------------------|
||o-------------------------------|--------------------|
||--4--------4-----2----2---------|---4--------4--2--2-|
||--4--------4-----2----2---------|---4--------4--2--2-|
||o-2--2-2-2-2-----0----0---------|---2--2-2-2-2--0--0-|
||--------------------------------|--------------------|


  D5                               A5                  F#5
                       |-3--|
   E  +E        +E   E S  S S  E   E +E       +E  S  S  S S  S  S
|-------------------10-9h10p9----|----------------------------------||
|-10-(10)b12r==(10)-----------10-|----------------8-10----8--------o||
|--------------------------------|-9-(9)b11r==(9)-9-11-11-9--9-11---||
|--------------------------------|---------------------12---11-12---||
|--------------------------------|---------------------------------o||
|--------------------------------|----------------------------------||
|
|  E   S     S   E   E E       E   E  S     S  E  E     E    E
|--------------------------------|----------------------------------||
|--------------------------------|---------------------------------o||
|--7-----------------7-7-------7-|----------------------------------||
|--7-----------------7-7-------7-|-7--------------7-----4----4------||
|--5---5-----5---5---5-5-------5-|-7--------------7-----4----4-----o||
|--------------------------------|-5--5-----5--5--5-----2----2------||


  B5       D5               B5
            |--3--|                |--3--|
  E   E  E  S  S  S  E  E    E  E  S  S  S  E E  E
|-------------------------|------------------------|
|----10-------------------|------------------------|
|-------12-11h12p11-------|----12-12-14p12-11------|
|-9-----------------12-11-|-------------------9-11-|
|-------------------------|-14---------------------|
|-------------------------|------------------------|
|
| Q.        Q.               H                E  E
|-------------------------|------------------------|
|-------------------------|------------------------|
|-4---------7-------------|--4---------------------|
|-4---------7-------------|--4---------------------|
|-2---------5-------------|--2----------------2h=4-|
|-------------------------|------------------------|


  D5        A/C#        F#5            B5         D5        A/C#
                             |--3--|
   E.  S  E  E   E  E    E   S  S  S E  E  E  E    E.  S  E  E   E  E
|---------------------|-------------------------|----------------------|
|---------------------|-------------------------|----------------------|
|-----11--------------|-12--11h12p11-9-11-------|-----11---------------|
|-12-----12-11-----11-|--------------------9-11-|-12-----12-11-----11--|
|---------------12----|-------------------------|---------------12-----|
|---------------------|-------------------------|----------------------|
|
|  Q.        Q.          Q.             Q.         Q.        Q.
|---------------------|-------------------------|----------------------|
|---------------------|-------------------------|----------------------|
|--7---------6--------|-----------------4-------|--7---------6---------|
|--7---------7--------|--4--------------4-------|--7---------7---------|
|--5---------4--------|--4--------------2-------|--5---------4---------|
|---------------------|--2----------------------|----------------------|


  F#5          B5
 3/8          6/8
   E   E E     Q.   E    +E  E
|----------||------------------|
|----------||o-----------------|
|-11--12-9-||-------9b11r(9)-7-|
|----------||--9---------------|
|----------||o-----------------|
|----------||------------------|
|
|  Q.          H.
|----------||------------------|
|----------||o-----------------|
|----------||--4---------------|
|--4-------||--4---------------|
|--4-------||o-2---------------|
|--2-------||------------------|


  D5                  A5          G5     A5
  E  E    Q  E E      E  E H      E  E E E  E E
|-------------------|-----------|----------------||
|-------------------|-----------|------7--------o||
|-9--9b11-7----9b11-|-9--6------|-7--9---9--6----||
|------------7------|------7----|-------------7--||
|-------------------|-----------|---------------o||
|-------------------|-----------|----------------||
|
| H.                  H.          Q.     Q.
|-------------------|-----------|----------------||
|-------------------|-----------|---------------o||
|-7-----------------|-----------|--------2-------||
|-7-----------------|-7---------|-5------2-------||
|-5-----------------|-7---------|-5------0------o||
|-------------------|-5---------|-3--------------||


   Chorus
    B5         G5        D5          E5   F#5
    Gtrs I, II
     H.        H.        H.          Q.   Q.
||-----------|---------|-----------|------------||
||o----------|---------|-----------|-----------o||
||---4-------|---------|-7---------|------------||
||---4-------|-5-------|-7---------|-2----4-----||
||o--2-------|-5-------|-5---------|-2----4----o||
||-----------|-3-------|-----------|-0----2-----||
|
|   Gtr IV
|    H.        H.        Q.   Q.     Q.   Q.
||--10-------|-7-------|-2----5----|-7----9-----||
||o----------|---------|-----------|-----------o||
||-----------|---------|-----------|------------||
||-----------|---------|-----------|------------||
||o----------|---------|-----------|-----------o||
||-----------|---------|-----------|------------||


  B5         G5        D5   G5     D5   A5
   H.        H.        Q.   Q.     Q.   Q.
|----------|---------|-----------|-----------||
|----------|---------|-----------|-----------||
|--4-------|---------|-7---------|-7---------||
|--4-------|-5-------|-7----5----|-7----7----||
|--2-------|-5-------|-5----5----|-5----7----||
|----------|-3-------|------3----|------5----||
|
|  H.        H.        Q.   Q.     H.
|-10-------|-7-------|-2----3----|-2---------||
|----------|---------|-----------|-----------||
|----------|---------|-----------|-----------||
|----------|---------|-----------|-----------||
|----------|---------|-----------|-----------||
|----------|---------|-----------|-----------||


 Outro
  Bb5                      F#5
  Gtr II
   H.                       H.
   |                        |
   /                        /

   Q.            E  E  E    E   E  Q   E  E
|------------------------|------------------|
|------------------------|------------------|
|---------------11-------|-12---------------|
|--9---------------12--9-|-----12--8--12-11-|
|------------------------|------------------|
|------------------------|------------------|
|
| Gtrs IV, VI
|  E.   S    E   E  E  E    E   E  Q   E  E
|---------------14-------|-15---------------|
|------12---15-----15-12-|-----15-----15-14-|
|-16--(16)-(16)----------|--------15--------|
|------------------------|------------------|
|------------------------|------------------|
|------------------------|------------------|
|
| Gtr III
|  E.   S    E   E  E  E    E   E  Q   E  E
|----------------2-------|--3---------------|
|------------3------3----|------3------3--2-|
|--4----4--------------4-|---------3--------|
|--4---------------------|--5------5--------|
|--2---------------------|------------------|
|------------------------|------------------|


  Bb5                      F5
   H.                       H.
   |                        |
   /                        /

   Q.            E  E  E    E   E  H
|------------------------|--------------|
|------------------------|--------------|
|---------------11-------|--9-----------|
|--9---------------12--9-|-----11--8----|
|------------------------|--------------|
|------------------------|--------------|
|
|  E.   S    E   E  E  E    E   E  H
|---------------14-------|-12-----------|
|------12---15-----15-12-|-----14-------|
|-16--(16)-(16)----------|--------15----|
|------------------------|--------------|
|------------------------|--------------|
|------------------------|--------------|
|
|  E.   S    E   E  E  E    E   E  H
|----------------2-------|--0-----------|
|------------3------3----|------2-------|
|--4----4--------------4-|---------3----|
|--4---------------------|---------4----|
|--2---------------------|---------4----|
|------------------------|--2------2----|


  F#5                         F5
   H.                          H.
   |                           |
   /                           /

                   |-3-|
   H               S S S  E    H.
|---------------------------|------------------|
|--8---------------7h8p7----|------------------|
|-------------------------9-|-11---------------|
|---------------------------|------------------|
|---------------------------|------------------|
|---------------------------|------------------|
|
|                                 Gtr V
|       |--3--|
|  Q    S  S  S  Q        E    e   e  e  q   e
|-15---14-15-14-12-------10-|-14---------------|
|---------------------------|-----11-14-19--11-|
|---------------------------|-11---------------|
|---------------------------|------------------|
|---------------------------|------------------|
|---------------------------|------------------|
|                              H.
|
|  Q    E        Q        E    H.
|--3----2-------------------|--2---------------|
|--3-------------5--------3-|--2---------------|
|--4------------------------|--3---------------|
|--5----------------------5-|--4---------------|
|---------------------------|--4---------------|
|---------------------------|--2---------------|


  F#5                    F5
   H.                     H.
   |                      |
   /                      /

   Q    E        Q   E    E   +E      +H
|----------------------|-----------------------|
|-12-------------------|-----------------------|
|------14-------12--14-|-11--(11)b12r(11)------|
|----------------------|-----------------------|
|----------------------|-----------------------|
|----------------------|-----------------------|
|
| Gtrs IV, VI
|       |--3--|
|  Q    S  S  S  Q   E    H.
|-19---17-19-17-15--17-|-14--------------------|
|----------------------|-----------------------|
|----------------------|-----------------------|
|----------------------|-----------------------|
|----------------------|-----------------------|
|----------------------|-----------------------|
|
|  Q    E        Q   E    H                E E
|--7----5--------3---5-|--2--------------------|
|----------------------|--2--------------------|
|--7----6--------4---6-|--3--------------------|
|----------------------|--4--------------------|
|----------------------|--4----------------5-4-|
|----------------------|--2--------------------|


  Bb5                      F#5
   H.                       H.
   |                        |
   /                        /

   Q.            E  E  E    E   E  Q   E  E
|------------------------|------------------|
|------------------------|------------------|
|---------------11-------|-12---------------|
|--9---------------12--9-|-----12--8--12-11-|
|------------------------|------------------|
|------------------------|------------------|
|
|  E.   S    E   E  E  E    E   E  Q   E  E
|---------------14-------|-15---------------|
|------12---15-----15-12-|-----15-----15-14-|
|-16--(16)-(16)----------|--------15--------|
|------------------------|------------------|
|------------------------|------------------|
|------------------------|------------------|
|
|  E.   S    E   E  E  E    E   E  Q   E  E
|----------------2-------|--3---------------|
|------------3------3----|------3------3--2-|
|--4----4--------------4-|---------3--------|
|--4---------------------|--5------5--------|
|--2---------------------|------------------|
|------------------------|------------------|


  Bb5                      F5
   H.                       H.
   |                        |
   /                        /

   Q.            E  E  E    E   E  H
|------------------------|--------------|
|------------------------|--------------|
|---------------11-------|--9-----------|
|--9---------------12--9-|-----11--8----|
|------------------------|--------------|
|------------------------|--------------|
|
|  E.   S    E   E  E  E    E   E  H
|---------------14-------|-12-----------|
|------12---15-----15-12-|-----14-------|
|-16--(16)-(16)----------|--------15----|
|------------------------|--------------|
|------------------------|--------------|
|------------------------|--------------|
|
|  E.   S    E   E  E  E    E   E  H
|----------------2-------|--0-----------|
|------------3------3----|------2-------|
|--4----4--------------4-|---------3----|
|--4---------------------|---------4----|
|--2---------------------|---------4----|
|------------------------|--2------2----|


                              H.=H
  F#5                         F5
   H.                          H.
   |                           |
   /                           /

                   |-3-|
   H               S S S  E    H.
|---------------------------|-------------------|
|--8---------------7h8p7----|-------------------|
|-------------------------9-|-11----------------|
|---------------------------|-------------------|
|---------------------------|-------------------|
|---------------------------|-------------------|
|
|                                 Gtr V
|       |--3--|
|  Q    S  S  S  Q        E    E   e e  e  e  e
|-15---14-15-14-12-------10-|-14----------------|
|---------------------------|--------9-11-12-14-|
|---------------------------|-----11------------|
|---------------------------|-------------------|
|---------------------------|-------------------|
|---------------------------|-------------------|
|                              H.
|
|  Q    E        Q        E    H.
|--3----2-------------------|--2----------------|
|--3-------------5--------3-|--2----------------|
|--4------------------------|--3----------------|
|--5----------------------5-|--4----------------|
|---------------------------|--4----------------|
|---------------------------|--2----------------|


  F#5              F5
   H.               H.
   |                |
   /                /

   Q    E  Q   E    E   +E      +H
|----------------|------------------------|
|-12-------------|------------------------|
|------14-12--14-|-11--(11)b12r(11)-------|
|----------------|------------------------|
|----------------|------------------------|
|----------------|------------------------|
|
| Gtrs IV, VI
|  Q    E  Q   E    H.
|-19---17-15--17-|-14---------------------|
|----------------|------------------------|
|----------------|------------------------|
|----------------|------------------------|
|----------------|------------------------|
|----------------|------------------------|
|
|  Q    E  Q   E    E    E       E  E E E
|--7----5--3---5-|--2----3-------2--0-----|
|----------------|--------------------3-2-|
|--7----6--4---6-|------------------------|
|----------------|------------------------|
|----------------|------------------------|
|----------------|------------------------|


  Bb5
    H.             +H.         +H.
    |               |           |
    /               /           /

    ~~~~~~~~~~~~~~~~~~~~~~~~~~~~~~~
    H.             +H.         +H.
|---------------|-----------|---------*|
|-/12-----------|-(12)------|-(12)----*|
|---------------|-----------|---------*|
|---------------|-----------|---------*|
|---------------|-----------|---------*|
|---------------|-----------|---------*|
|
|   Q    +H        +H.         +H.
|-^19---(19)----|-(19)------|-(19)----*|
|-^19---(19)----|-(19)------|-(19)----*|
|-^19---(19)----|-(19)------|-(19)----*|
|-^21---(21)----|-(21)------|-(21)----*|
|-^21---(21)----|-(21)------|-(21)----*|
|-^19---(19)----|-(19)------|-(19)----*|
|
|   H.             +H.         +H.
|---2-----------|--(2)------|--(2)----*|
|---3-----------|--(3)------|--(3)----*|
|---4-----------|--(4)------|--(4)----*|
|---4-----------|--(4)------|--(4)----*|
|---2-----------|--(2)------|--(2)----*|
|---------------|-----------|---------*|




--------------------------------------------------------------------------------


Duration Legend
---------------
W - whole; H - half; Q - quarter; E - 8th; S - 16th; T - 32nd; X - 64th; a - acciaccatura
+ - note tied to previous; . - note dotted; .. - note double dotted
Uncapitalized letters represent notes that are staccato (1/2 duration)
Irregular groupings are notated above the duration line
Duration letters will always appear directly above the note/fret number it represents the
duration for.  Duration letters with no fret number below them represent rests.  Multi-
bar rests are notated in the form Wxn, where n is the number of bars to rest for.  Low
melody durations appear below the staff

Tablature Legend
----------------
 h   - hammer-on
 p   - pull-off
 b   - bend
 pb  - pre-bend
 r   - bend release (if no number after the r, then release immediately)
 /\  - slide into or out of (from/to "nowhere")
 s   - legato slide
 S   - shift slide
 - natural harmonic
[n]  - artificial harmonic
n(n) - tapped harmonic
 ~   - vibrato
 tr  - trill
 T   - tap
 TP  - trem. picking
 PM  - palm muting
\n/  - tremolo bar dip; n = amount to dip
 \n  - tremolo bar down
 n/  - tremolo bar up
/n\  - tremolo bar inverted dip
 =   - hold bend; also acts as connecting device for hammers/pulls
 <> - volume swell (louder/softer)
 x   - on rhythm slash represents muted slash
 o   - on rhythm slash represents single note slash

Misc Legend
-----------
 |  - bar
||  - double bar
||o - repeat start
o|| - repeat end
*|  - double bar (ending)
 :  - bar (freetime)
 $  - Segno
 &  - Coda
Tempo markers -  = BPM(8/16=s8/s16), where s8 = swing 8ths, s16 = swing 16ths
Tap to rate this tab
 
# A B C D E F G H I J K L M N O P Q R S T U V W X Y Z