Song name
# A B C D E F G H I J K L M N O P Q R S T U V W X Y Z

Blind Guardian - Skalds And Shadows tab

                             SKALDS and SHADOWS
                           tabbed by Corbin Fowler

Intro and Chorus
|--------------------------------------------------------|
|-----7-8--10-7p5---7-5----------7-8--10-7h8p7---7-------|
|9---9------------7-----6---9---9--------------7---9~----|
|---9----9----------------7----9-----9-------------------|
|--7--------------------------7--------------------------|
|--------------------------------------------------------|

Verse 1
|-----------------------------------------------------|
|-----7-8-10-7----7-8~--10-7----7-8~--10-7----7-------|
|9---9--------9p7-----------9p7-----------9p7---9~----|
|---9----9--------------------------------------------|
|--7--------------------------------------------------|
|-----------------------------------------------------|

Pre-Chorus
|----------------------------------------------|
|----------------------------------------------|
|7--5-7-5-4-5--4----------7--5-7-5-4-5--4------|
|----------------7--7---5-----------------5----|
|-------------------7---5----------------------|
|-------------------5---3----------------------|

Verse 2
|----------------------------------------------------------------------------|
|13~~~-13-12-10-12---12-12~~12-13-12-10-12-10-10-10~~~10-8-7-8-7---------7---|
|------------------0---------------------------------------------9-7-7-9---7-|
|----------------------------------------------------------------------------|
|----------------------------------------------------------------------------|
|----------------------------------------------------------------------------|


....continued
|------------|
|---10-12----|
|-9----------|
|------------|
|------------|
|------------|

Interlude/Outro
|------------------------------------------------------|
|20~~-20p19p17-17--------------------------------------|
|-----------------19-17-16--16-17-16-17-16----16-17----|
|------------------------------------------19----------|
|------------------------------------------------------|
|------------------------------------------------------|

Well, I hope you enjoyed learning this tab, it's really quite easy but make sure your  
and finger postioning are both correct or else it will sound sloppy.  :)
Tap to rate this tab
 
# A B C D E F G H I J K L M N O P Q R S T U V W X Y Z