Song name
# A B C D E F G H I J K L M N O P Q R S T U V W X Y Z

Blind Iris - Drive tab

|===============|
|     Drive     |
|   Blind Iris  |
|===============|

Hey y'all ;)
Awesome song, and I know it's old and my tabs are a **bit** late, but better
late than never, eh? :)
A side note: I tabbed this on a steel-string acoustic,
so some of the effects I say to use might be wrong-ish.
Also, I think it's mostly right, except for the some of the solo and the
chorus sounds wrong-ish, but it sounded wrong-er any other way that I
played it.

Anyway, enjoy!
Please rate and comment! :D

====

Standard Tuning (eBGDAE)
2 Guitars

h   = hammer on
p   = pull off
/   = slide
x   = deadened string
PM  = palm mute
(#) = let the note ring
~   = whammy/vibrato
b   = bend
~>  = use the whammy bar to bend the pitch up (to the next fret if there is a
      number, otherwise bend it up half a semitone)
~<  = same as above to bend the pitch down

====


Intro
Guitar 1
e|------------------------------------------|
B|--7----(7)----7h8p7--7----7h8p7--7--(7)---|
G|--7----(7)----7-(7)--7----7-(7)--7--(7)---|
D|------------------------------------------|
A|------------------------------------------|
E|------------------------------------------|
With a lot of reverb/echo on the last note


====

Verse 1
Guitar 1  x6
e|---------------------------------------------------------|
B|---15-13-12----12----------------------------------------|
G|------------14----14-12-11-----------------------12-13---|
D|-----------------------------12-------------12-----------|
A|-----------------------------------12-14-15--------------|
E|---------------------------------------------------------|
Low gain and high reverb

Guitar 2  x6
e|---------------------------------------------------------|
B|------------15---------15--------------15-------15~>16---|
G|---------------------------------------------------------|
D|---12--12--------12-----------12--12-------12------------|
A|---------------------------------------------------------|
E|---------------------------------------------------------|
Low gain and lots of effects


====

Bridge 1 (High gain for both guitars)
Guitars 1&2  x2
e|-----------------------------------------------------------------|
B|-----------------------------------------------------------------|
G|------------5~>-----------3~>------------------------------------|
D|---5--5-5-5-5~>--5--5-5-5-3~>--5--5-5-5-7~>--5--5-5-5-5-5-5-5----|
A|---5--5-5-5-3~>--5--5-5-5-1~>--5--5-5-5-7~>--5--5-5-5-5-5-5-5----|
E|---3--3-3-3------3--3-3-3------3--3-3-3-5~>--3--3-3-3-3-3-3-3----|
PM     |-----|       |-----|       |-----|       |-------------|


====

Verse 2 (High gain for both guitars)
Guitar 1  x6
e|-----------------------------|
B|-----------------------------|
G|-----------------------------|
D|---5-5-5-5-5-5-x-x-5-x-5-5---|
A|---5-5-5-5-5-5-x-x-5-x-5-5---|
E|---3-3-3-3-3-3-x-x-3-x-3-3---|

Guitar 2  x6
e|-----------------------------|
B|-----------------------------|
G|---x-x-x-5-x-x-5-4-x-5p4-4---|
D|---x-x-x---x-x-----x---------|
A|-----------------------------|
E|-----------------------------|


====

Chorus 1
Guitar 1 (High gain)
e|--------------------------------------------|
B|--------------------------------------------|
G|--------------------------------------------|
D|--10----8-----5----(5)-----10-----8------8--|
A|--10----8-----5----(5)-----10-----8----8-8--|
E|--8-----6-----3----(3)-----8------6----6-6--|
               "I...     Will..."    PM |-|

e|-----------------------------------------|
B|-----------------------------------------|
G|-----------------------------------------|
D|------5---(5)----10---(10)-----8------8--|
A|------5---(5)----10---(10)-----8----8-8--|
E|------3---(3)----8----(8)------6----6-6--|
PM                                   |-|

e|-----------------------------------------|
B|-----------------------------------------|
G|-----------------------------------------|
D|------5---(5)----10---(10)-----8------8--|
A|------5---(5)----10---(10)-----8----8-8--|
E|------3---(3)----8----(8)------6----6-6--|
PM                                   |-|

e|-----------------------------------------|
B|-----------------------------------------|
G|-----------------------------------------|
D|------5---(5)----10---(10)-----8------8--|
A|------5---(5)----10---(10)-----8----8-8--|
E|------3---(3)----8----(8)------6----6-6--|
PM                                   |-|


Guitar 2 (Low/medium gain)
e|--------------------------------------------|
B|--------------------------------------------|
G|-----------------------11-----12-11---------|
D|--10----8---------12-------12------------8--|
A|--10----8------------------------------8-8--|
E|--8-----6------------------------------6-6--|
               "I...     Will..."    PM |-|

e|-------------------------------|
B|-------------------------------|
G|----------11-----12-11---------|
D|-------12-----12------------8--|
A|--------------------------8-8--|
E|--------------------------6-6--|
PM                         |-|

e|-------------------------------|
B|-------------------------------|
G|----------11-----12-11---------|
D|-------12-----12------------8--|
A|--------------------------8-8--|
E|--------------------------6-6--|
PM                         |-|

e|-------------------------------|
B|-------------------------------|
G|----------11-----12-11---------|
D|-------12-----12------------8--|
A|--------------------------8-8--|
E|--------------------------6-6--|
PM                         |-|


====

Verse 3
Guitar 2 (Delay and reverb)  x2
e|-----------------------------------|
B|------------------------------10---|
G|---11b12b11------11b12b11----------|
D|------------12------------12-------|
A|-----------------------------------|
E|-----------------------------------|


And then high gain for both guitars:
Guitar 1  x6
e|-----------------------------|
B|-----------------------------|
G|-----------------------------|
D|---5-5-5-5-5-5-x-x-5-x-5-5---|
A|---5-5-5-5-5-5-x-x-5-x-5-5---|
E|---3-3-3-3-3-3-x-x-3-x-3-3---|

Guitar 2  x6
e|-----------------------------|
B|-----------------------------|
G|---x-x-x-5-x-x-5-4-x-5p4-4---|
D|---x-x-x---x-x-----x---------|
A|-----------------------------|
E|-----------------------------|


====

Chorus 2
Guitar 1 (High gain)
e|------------------------------------------|
B|------------------------------------------|
G|------------------------------------------|
D|--10--8-----5----(5)-----10-----8------8--|
A|--10--8-----5----(5)-----10-----8----8-8--|
E|--8---6-----3----(3)-----8------6----6-6--|
            "I...     Will..."     PM |-|

e|-----------------------------------------|
B|-----------------------------------------|
G|-----------------------------------------|
D|------5---(5)----10---(10)-----8------8--|
A|------5---(5)----10---(10)-----8----8-8--|
E|------3---(3)----8----(8)------6----6-6--|
PM                                   |-|

e|-----------------------------------------|
B|-----------------------------------------|
G|-----------------------------------------|
D|------5---(5)----10---(10)-----8------8--|
A|------5---(5)----10---(10)-----8----8-8--|
E|------3---(3)----8----(8)------6----6-6--|
PM                                   |-|

e|-----------------------------------------|
B|-----------------------------------------|
G|-----------------------------------------|
D|------5---(5)----10---(10)-----8------8--|
A|------5---(5)----10---(10)-----8----8-8--|
E|------3---(3)----8----(8)------6----6-6--|
PM                                   |-|


Guitar 2 (Low/medium gain)
e|---------------------------------------|
B|---------------------------------------|
G|------------------11-----12-11---------|
D|--10--8------12-------12------------8--|
A|--10--8---------------------------8-8--|
E|--8---6---------------------------6-6--|
           "I...     Will..."     PM |-|

e|-------------------------------|
B|-------------------------------|
G|----------11-----12-11---------|
D|-------12-----12------------8--|
A|--------------------------8-8--|
E|--------------------------6-6--|
PM

e|-------------------------------|
B|-------------------------------|
G|----------11-----12-11---------|
D|-------12-----12------------8--|
A|--------------------------8-8--|
E|--------------------------6-6--|
PM                         |-|

e|-------------------------------|
B|-------------------------------|
G|----------11-----12-11---------|
D|-------12-----12------------8--|
A|--------------------------8-8--|
E|--------------------------6-6--|
PM                         |-|


====

Solo (No Guitar 2)
Guitar 1 (High gain and some reverb)
e|-----------------------------------------------------------|
B|--/15---15-13----12----------------------------------------|
G|--------------14----14-12----------------------------12----|
D|--------------------------14-12-14-12-14-12-14-12-14-------|
A|-----------------------------------------------------------|
E|-----------------------------------------------------------|

e|-----------------------------------------------------------|
B|------------------------------------------15-/15-13--------|
G|--/14---12----------12------------------------------14-14--|
D|-----------14-12-------14-12-14--12-14-12------------------|
A|-----------------15----------------------------------------|
E|-----------------------------------------------------------|

e|-----------13---13-13-13-13--12--12-12--12-13--------------|
B|-----13---------------------------------------15-13-15-13--|
G|--14----14-------------------------------------------------|
D|-----------------------------------------------------------|
A|-----------------------------------------------------------|
E|-----------------------------------------------------------|

This bit   |-------------| is wrong, I think.
e|-----------------------------------------------------------|
B|-----13----------------------------------------------------|
G|--14----14-12b14--14-12----------------10--------------10--|
D|------------------------12-14-12-12b14-----10-12-12-12-----|
A|-----------------------------------------------------------|
E|-----------------------------------------------------------|

e|--------------------------------------------|
B|---------------------------10---------------|
G|--------10----10-10-12b14-----12-10---------|
D|--12-12----12-----------------------12------|
A|--------------------------------------------|
E|--------------------------------------------|


====

Chorus 3
Guitar 1 (High gain)
e|-----------------------------------------|
B|-----------------------------------------|
G|-----------------------------------------|
D|-----------5----(5)-----10-----8------8--|
A|-----------5----(5)-----10-----8----8-8--|
E|-----------3----(3)-----8------6----6-6--|
            "I...     Will..."     PM |-|

e|-----------------------------------------|
B|-----------------------------------------|
G|-----------------------------------------|
D|------5---(5)----10---(10)-----8------8--|
A|------5---(5)----10---(10)-----8----8-8--|
E|------3---(3)----8----(8)------6----6-6--|
PM                                   |-|

e|-----------------------------------------|
B|-----------------------------------------|
G|-----------------------------------------|
D|------5---(5)----10---(10)-----8------8--|
A|------5---(5)----10---(10)-----8----8-8--|
E|------3---(3)----8----(8)------6----6-6--|
PM                                   |-|

e|-----------------------------------------|
B|-----------------------------------------|
G|-----------------------------------------|
D|------5---(5)----10---(10)-----8------8--|
A|------5---(5)----10---(10)-----8----8-8--|
E|------3---(3)----8----(8)------6----6-6--|
PM                                   |-|

e|-----------------------------------------|
B|-----------------------------------------|
G|-----------------------------------------|
D|------5---(5)----10---(10)-----8------8--|
A|------5---(5)----10---(10)-----8----8-8--|
E|------3---(3)----8----(8)------6----6-6--|
PM                                   |-|

e|-----------------------------------------|
B|-----------------------------------------|
G|-----------------------------------------|
D|------5---(5)----10----8---7--5---(5)----|
A|------5---(5)----10----8---7--5---(5)----|
E|------3---(3)----8-----6---5--3---(3)----|


Guitar 2 (Low/medium gain)
e|------------------------------------|
B|------------------------------------|
G|---------------11-----12-11---------|
D|----------12-------12------------8--|
A|-------------------------------8-8--|
E|-------------------------------6-6--|
        "I...     Will..."     PM |-|

e|-------------------------------|
B|-------------------------------|
G|----------11-----12-11---------|
D|-------12-----12------------8--|
A|--------------------------8-8--|
E|--------------------------6-6--|
PM                         |-|

e|-------------------------------|
B|-------------------------------|
G|----------11-----12-11---------|
D|-------12-----12------------8--|
A|--------------------------8-8--|
E|--------------------------6-6--|
PM                         |-|

e|-------------------------------|
B|-------------------------------|
G|----------11-----12-11---------|
D|-------12-----12------------8--|
A|--------------------------8-8--|
E|--------------------------6-6--|
PM                         |-|

e|-------------------------------|
B|-------------------------------|
G|----------11-----12-11---------|
D|-------12-----12------------8--|
A|--------------------------8-8--|
E|--------------------------6-6--|
PM                         |-|

e|-----------------------------------------|
B|-----------------------------------------|
G|-----------------------------------------|
D|------5---(5)----10----8---7--5---(5)----|
A|------5---(5)----10----8---7--5---(5)----|
E|------3---(3)----8-----6---5--3---(3)----|

====

Well, that's it :) I think the second last power chord is off, but that's
about as close as I could get it to sound.

Please rate and comment!! :)
Tap to rate this tab
 
# A B C D E F G H I J K L M N O P Q R S T U V W X Y Z