Guitaretab - guitar tabs
Song name
# A B C D E F G H I J K L M N O P Q R S T U V W X Y Z

Blind Melon - Candy Says tab

-------------------------------------------------------------------------------
			     Candy Says Ė Blind Melon
-------------------------------------------------------------------------------
Tabbed by: OMRI!
Email: I.m.bleach@gmail.com

Tuning:Standard
    G                D            C                Em
e|-------3-3--3---3--5-5-5-7-5-5--8--8--8--10-8-8--0-0-0--5-3-3--------------|
B|-------3-3--3---3--7-7-7-7-7-7--8--8--8--8--8-8--0-0-0--x-3-3--------------|
G|-------4-4--4-4-4--7-7-7-7-7-7--9--9--9--9--9-9--0-0-0--2-0-0--------------|
D|---5-5-5-5--5-5-5--7-7-7-7-7-7--10-10-10-8--8-8--2-2-2----2-2--------------|
A|---5-5--------5----5-------5-5--10----10-10------2-2-2----2-2--------------|
E|---3-3--------3-----------------8-----8--8-------0-0-0----0-0--------------|
     D D U U  U D U
[ Tab from: http://www.guitaretab.com/b/blind-melon/120541.html ]
e|--3-3---5-x-3-3--3-3---5-x-3-3--5-5---7-x-5-5--x-12-x-10-x-7-x-5-----------|
B|--5-5---5-x-5-5--3-3-3-3-x-3-3--7-7---7-x-7-7--x-12-x-10-x-7-x-5-----------|
G|--5-5-5-5-x-5-5--4-4-4-4-x-4-4--7-7-7-7-x-7-7------------------------------|
D|--5-5-5-5---5-5--5-5-5-3---3-3--7-7-7-----7-7------------------------------|
A|--3-3-3-3---3-3--5-5-5-5---5-5--5-5-5-----5-3------------------------------|
E|-----------------3-3-3-3---3-3---------------------------------------------|

Of course there are two guitars, but I made this tab for only one guitar, in case you 
fire it up with some friends.
The chorus is just-

G      C         D
G      C         D
C      G
D                C

Simple chords for chorus only with those chords modifications I made, trying to make 
sound more country.
It looks really easy but actually for figuring out the rythem and style of playing it 
a couple of minutes, so donít base your picking on my suggestions, because they are suggestions.
There's a reason I submit this as a blind melon song-I tabbed out their version, I'm 
for not tabbing the solo for I had one guitar in mind playing it out, but the day will come.

For thoughts/soulmate/responses/viruses-
I.m.bleach@gmail.com
| /  slide up
| \  slide down
| h  hammer-on
| p  pull-off
| ~  vibrato
| +  harmonic
| x  Mute note
===============================================================================
Related for Candy Says tab