Song name
# A B C D E F G H I J K L M N O P Q R S T U V W X Y Z

Blind Melon - Pusher tab

-----------------------------------------------------------------------
		       THE PUSHER - Blind Melon
-----------------------------------------------------------------------

Tabbed by: pearlincubus
Email: imcnaught@student.stonehill.edu


Tuning: standard


Ok this is a really easy song...only 3 chords in the whole thing,
but theres nothing accurate for it up yet so here you go.


verse
                                      
e|----0--0----3-3-3-3-3------------------------------------------------|
B|----0--0----2-2-2-2-2------------------------------------------------|
G|----1--1----2-2-2-2-2------------------------------------------------|
D|----2--2----2-2-2-2-2------------------------------------------------|
A|----2--2----0-0-0-0-0------------------------------------------------|
E|----0--0----0-0-0-0-0------------------------------------------------|



breakdown

e|----2----3-----------------------------------------------------------|
B|----4----2-----------------------------------------------------------|
G|----4----2-----------------------------------------------------------|
D|----4----2-----------------------------------------------------------|
A|----2----0-----------------------------------------------------------|
E|----2----0-----------------------------------------------------------|


simple as that.


Tap to rate this tab
# A B C D E F G H I J K L M N O P Q R S T U V W X Y Z