Song name
# A B C D E F G H I J K L M N O P Q R S T U V W X Y Z

Blind Melon - Mouth Full Of Cavities tab

Mouthful of Cavities - Blind Melon - Soup
                             
     Listen, man I got the window open                      


    you hear the cats?          Listen......                      
                                                             
   Em               
|--0--|
|--0--|
|--0--|
|--2--|
|--2--|
|--0--|

 Verse Riff:
|------0----0------0-----0---0----0---------------------------------|
|------0----0------0---0-3--(3)-3-3-3p0-(0)-0----0(0)-----0---0---0-|
|--0---0--0-0----0-0-0-0-0------0--------4-----3---3--x---2---0---0-|
|--2---2--2-2-2--2---2-2-2----------------------------x-0---0---0---|
|--2------2---3----------3------------------------------------------|
|--0----------------------------------------------------------------|
                              * Slide Riff
|------0----0------0---------|----------------------------------|
|------0----0------0---0-----|--x-x-5/7-7-7-x-x-5/7-7-7-x-5-x-0-|
|-0----0--0-0----0-0-0-0-0---|--x-x-5/7-7-7-x-x-5/7-7-7-x-5-x-0-|
|-2----2--2-2-2--2---2-2-x---|--x-x-5/7-7-7-x-x-5/7-7-7-x-5-x---|
|-2-------2---3----------3/5-|--x-------------------------------|
|-0--------------------------|----------------------------------|

 Transition Riff:

  they see everything you do                          
 
|---------0----0------0-----------|
|---------0----0------0---0---(0)-|
|-0-------0--0-0----0-0-0-0---(0)-|
|-2-------2--2-2-2--2---2-2-------|
|-2-------2---3-------------------|
|-0-------------------------3-----|

|-------------------------------|-------0----0---0---0---0---0-|
|---0---0------0---0------0---0-|--0----0----0---3---3---3---0-|
|-0-0-0-0----0-0-0-0----0-0-0-0-|--2----2--2-2-2-2-2-2-2-2-2-2-|
|-2---2-2----2---2-2----2---2-2-|--2-------2---2---2---2---2---|
|-------------------------------|--0---------------------------|
|---------2----------1----------|------------------------------|

|--------0------0---3---3---3-----|---------0-----------------------------|
|----0---0------0---3---3---3---x-|-----0---0-----------------------------|
|-1h-2-2-2-2--2-2-2-2-2-2-2-2-x-x-|--1h-2-2-2-2-------2-x---2-------2-x---|
|-2----2---2--2---2---2---2---x---|--2----2---3--3--3-3-x-2-3--3--3-3-x-2-|
|-0----0---0--0---0---0---0---0---|--0----0---0-(0)-0-0-----0-(0)-0-0-----|
|---------------------------------|---------------------------------------|

|-------------------|
|-------------------|
|-2-------2-x---x---|
|-3--3--3-3-x-2-x-0-|
|-0-(0)-0-0-------2-|
|-------------------|

ELECTRIC GUITAR: E5 C5 D5 *Slide Riff

Slide guitar most likely uses G scale maybe G Bebop


LYRICS:

Mouthful of cavities
Your souls a bowl of jokes
And everyday you remind me
How Im desperately in need

See, I got alot of fiends around
And they're peaking through nothing new
They see you
They see everything you do

Seeing everything on the inside, out

Oh, please give me a little more
And Ill push away those baby blues
cause one of these days this will die
So will me and so will you

I write a letter to a friend of mine
I tell him how much I used to love to
Watch him smile

See I havent seen him smile in a
Little while

Havent seen him smile in a little while

But, I know youre laughing from the
Inside out
Laughing from the inside out
I know youre laughing from the
Inside out
Laughin from the inside
From the inside
From the inside
From the inside
From the inside out
Tap to rate this tab
# A B C D E F G H I J K L M N O P Q R S T U V W X Y Z