Song name
# A B C D E F G H I J K L M N O P Q R S T U V W X Y Z

Blind Melon - No Rain tab

this is just the guitar 2, i copied it from this dude for the sake of me not 
having to discern from the bass and guitar 1 haha

Tabbed By: Jerry Tran
Email: worldzop@yahoo.com
Comments: Complete Song


   1  	      2   3          4            5	     6		    
e:||----------|---|----------|------------|----------|--------------|
B:||-10-10/12-|---|-10-10/12-|------------|-10-10/12-|-----10-9-----|
G:||----------|-9-|----------|-----9------|----------|--9-------11--|
D:||----------|---|----------|------------|----------|--------------|
A:||----------|---|----------|------------|----------|--------------|
E:||----------|---|----------|------------|----------|--------------|


|--------------|-------------|---------------|------------------|
|--------------|----10-9-----|---------------|------10-9--------|
|-9--7--7--9-7-|-9--------11-|-9--7--7--9-7--|--9----------11---|
|--------------|-------------|---------------|------------------|
|--------------|-------------|---------------|------------------|
|--------------|-------------|---------------|------------------|


11		 12                   13               14             
|----------------|--------------------|-9h10-9---------|--------------|
|----------------|------10-9---10-10--|---------10-----|--------------|
|--9--7--7--9-7--|--9-----------------|-------------9--|-------9------|
|----------------|--------------------|----------------|--------------|
|----------------|--------------------|----------------|--------------|
|----------------|--------------------|----------------|--------------|


15               16             17                 18             
|----------------|--------------|------------------|--------------|
|----9-10----9---|--------------|-----9h10---------|--------------|
|----------------|------7-------|------------7-----|--------------|
|----------------|--------------|------------------|------7-------|
|----------------|--------------|------------------|--------------|
|----------------|--------------|------------------|--------------|


19                20              21               22             
|-----------------|---------------|----------------|--------------|
|-----------------|---------------|------0--x-0----|--------------|
|-----------------|---------------|------1--x-1----|-----9--------|
|----5------5-----|-----7h9-------|----------------|--------------|
|-----------------|---------------|----------------|--------------|
|-----------------|---------------|----------------|--------------|


23               24             25                26             
|----------------|--------------|-----------------|--------------|
|----------------|--------------|-----------------|--------------|
|----11-----11---|------7-------|----11-----11----|-------7------|
|----------------|--------------|-----------------|--------------|
|----------------|--------------|-----------------|--------------|
|----------------|--------------|-----------------|--------------|


27                28             29               30  31          
|-----------------|--------------|----------------|---|-----------|
|-----------------|--------------|-----10---10h12-|---|-10--10h12-|
|-----------------|--------------|----------------|-9-|-----------|
|----5---5---5----|--------------|----------------|---|-----------|
|-----------------|------7-------|----------------|---|-----------|
|-----------------|--------------|----------------|---|-----------|


32             33               34             35               
|--------------|----------------|--------------|----------------|
|-----10-9-----|----------------|-----10-9-----|----------------|
|-9---------11-|--9--7--7--9-7--|--9--------11-|--9--7--7--9-7--|
|--------------|----------------|--------------|----------------|
|--------------|----------------|--------------|----------------|
|--------------|----------------|--------------|----------------|


36                   37               38                   39
|--------------------|----------------|--------------------|-9h10-9--------|
|------10-9----------|----------------|------10-9---10-10--|--------10--9~-|
|--9-----------11----|--9--7--7--9-7--|--9-----------------|---------------|
|--------------------|----------------|--------------------|---------------|
|--------------------|----------------|--------------------|---------------|
|--------------------|----------------|--------------------|---------------|


40             41               42             43            
|--------------|----------------|-------------|----------------|
|-----10-9-----|----------------|-----10-9----|----------------|
|--9--------11-|-9--7--7--9-7---|--9-------11-|--9--7--7--9-7--|
|--------------|----------------|-------------|----------------|
|--------------|----------------|-------------|----------------|
|--------------|----------------|-------------|----------------|


44                   45               46                   47              
|--------------------|----------------|--------------------|-9h10-9--------|
|------10-9----------|----------------|------10-9---10-10--|--------10--9~-|
|--9-----------11----|--9--7--7--9-7--|--9-----------------|---------------|
|--------------------|----------------|--------------------|---------------|
|--------------------|----------------|--------------------|---------------|
|--------------------|----------------|--------------------|---------------|


48             49               50             51                 
|--------------|----------------|--------------|------------------|
|--------------|----9h10----9---|--------------|-----9h10---------|
|------9-------|----------------|------7-------|------------7-----|
|--------------|----------------|--------------|------------------|
|--------------|----------------|--------------|------------------|
|--------------|----------------|--------------|------------------|


52             53                54              55
|--------------|-----------------|---------------|----------------|
|--------------|-----------------|---------------|----------------|
|--------------|-----------------|---------------|-------x--x-x---|
|------7-------|----5------5-----|--7/9----------|-------x--x-x---|
|--------------|-----------------|---------------|-------x--x-x---|
|--------------|-----------------|---------------|----------------|


56             57               58             59                
|--------------|----------------|--------------|-----------------|
|--------------|----------------|------10------|-----------------|
|-------9------|----11b-----9---|--------------|---11b-----9-----|
|--------------|----------------|--------------|-----------------|
|--------------|----------------|--------------|-----------------|


60             61                62          63            64
|--------------|-----------------|-----------|-------------|-----|
|------12------|-----------------|-----------|--10---10h12-|-----|
|--------------|-----------------|-----------|-------------|--9--|
|--------------|---5----5----5---|-----------|-------------|-----|
|--------------|-----------------|-----7-----|-------------|-----|
|--------------|-----------------|-----------|-------------|-----|


65         66  67         68  69         70              71
|----------|---|----------|---|----------|---------------|----------------|
|-10-10h12-|---|-10-10h12-|---|-10-10/12-|----10-9----12-|-9---10--9------|
|----------|-9-|----------|-9-|----------|-9--------9----|----9-------9-9-|
|----------|---|----------|---|----------|---------------|----------------|
|----------|---|----------|---|----------|---------------|----------------|
|----------|---|----------|---|----------|---------------|----------------|


72                  73              74                 
|-12-9---10--9---10-|-10---10--9----|-10-9-9--12-9-9--10-9-9--12-9-9-|
|-------9-------9---|-----9----9--9-|-10-9-9--12-9-9--10-9-9--12-9-9-|
|-------------------|---------------|---------9----------------------|
|-------------------|---------------|--------------------------------|
|-------------------|---------------|--------------------------------|
|-------------------|---------------|--------------------------------|


75                               76
|-10-9-9--12-9-9--10-9-9--12-9-9-|-10-9-9--10-9-9--12-9-9--10-9-9-|
|-10-9-9--12-9-9--10-9-9--12-9-9-|-9--9-9--9--9-9--9--9-9--9--9-9-|
|-9-------9-------9--------------|--------------------------------|
|--------------------------------|--------------------------------|
|--------------------------------|--------------------------------|
|--------------------------------|--------------------------------|

 
77                 78                          79
|-14-9-9-12-9-9-9S-|---------------------------|----------------------------|
|-9--9-9-9--9-9-9S-|-9p7-7-7/5-5--5/3-3--3/2-2-|-2/3-3--3/5-5--5/7-7--7/9-9-|
|-------------9-9S-|---------------------------|----------------------------|
|------------------|---------------------------|----------------------------|
|------------------|---------------------------|----------------------------|
|------------------|---------------------------|----------------------------|


80                    81                 82                  83
|-------9----9----10-|-9----12---9--9---|-------------------|-------------7-|
|-9h10---10----10----|----10----10-10-x-|-9b--7----9-x----7-|-7---7--9b---x-|
|--------------------|------------------|-9b--7----9------7-|-7---7--9b---7-|
|--------------------|------------------|-------9-------9---|-9-------------|
|--------------------|------------------|-------------------|---------------|
|--------------------|------------------|-------------------|---------------|


84                         85                       86    87        88
|----7---------------------|------------------------|-----|---------|-----|
|---7---10p7---7-----------|------------------------|-----|-9h10--9-|-----|
|-9b--------9--7-9-9--9p7--|-7--------------7--9p7--|--9--|---------|--7--|
|------------------------9-|--9-7--9p7---7-9------9-|-----|---------|-----|
|--------------------------|----------9-------------|-----|---------|-----|
|--------------------------|------------------------|-----|---------|-----|


89       90  91                92    93           94  95          96  
|--------|---|-----------------|-----|------------|---|-----------|-----|
|-9h10-9-|---|-----------------|-----|--10--10/12-|---|-10--10/12-|-----|
|--------|-7-|-----------------|-----|------------|-9-|-----------|--9--|
|--------|---|----5-5---5--5-5-|-----|------------|---|-----------|-----|
|--------|---|-----------------|--7--|-x----------|---|-----------|-----|
|--------|---|-----------------|-----|------------|---|-----------|-----|

 
97          98             99               100            101   
|-----------|--------------|----------------|--------------|----------------|
|-10--10/12-|----10-9----7-|----------------|-----10-9--10-|----------------|
|-----------|-9------------|--9--7--7--9-7--|-9------------|--9--7--7--9-7--|
|-----------|--------------|----------------|--------------|----------------|
|-----------|--------------|----------------|--------------|----------------|
|-----------|--------------|----------------|--------------|----------------|


102                  103              104                  105 
|--------------------|----------------|--------------------|-9h10-9--------|
|------10-9----------|----------------|------10-9---10-10--|--------10--9~-|
|--9-----------11----|--9--7--7--9-7--|--9-----------------|---------------|
|--------------------|----------------|--------------------|---------------|
|--------------------|----------------|--------------------|---------------|
|--------------------|----------------|--------------------|---------------|


106            107              108           109            
|--------------|----------------|-------------|----------------|
|-----10-9-----|----------------|-----10-9----|----------------|
|--9--------11-|-9--7--7--9-7---|--9-------11-|--9--7--7--9-7--|
|--------------|----------------|-------------|----------------|
|--------------|----------------|-------------|----------------|
|--------------|----------------|-------------|----------------|


110                  111              112                  113              
|--------------------|----------------|--------------------|---------------|
|------10-9--10------|----------------|--------------------|---------------|
|--9-----------11----|--9--7--7--9-7--|-9/11-9-11b-9-9-11b-|-9-9-11b-9-9-9-|
|--------------------|----------------|--------------------|---------------|
|--------------------|----------------|--------------------|---------------|
|--------------------|----------------|--------------------|---------------|

 
114                 115            116                   117
|-------------------|--------------|-12-9--9-10--9----10-|-12-12-10--9----9-|
|-10p9---12--9---10-|-9---12--9----|----9--9-9---9----9--|-9--9--9---9--9-9-|
|-------9-------9---|----9-------9-|----9--9-9------9-9--|-9--9--9---9--9---|
|-------------------|--------------|---------------------|------------------|
|-------------------|--------------|---------------------|------------------|
|-------------------|--------------|---------------------|------------------|


118                              119
|-9--9-9--9--9-9--9--9-9--9--9-9-|-9--9-9--9--9-9--9--9-9--9--9-9-|
|-10-9-9--12-9-9--10-9-9--12-9-9-|-10-9-9--12-9-9--10-9-9--12-9-9-|
|-9------------------------------|--------------------------------|
|--------------------------------|--------------------------------|
|--------------------------------|--------------------------------|
|--------------------------------|--------------------------------|


120                              121
|-12-9-9--12-9-9--10-9-9--12-9-9-|-14-9-9--12-9--9--------|
|-9--9-9--9--9-9--9--9-9--9--9-9-|-9--9-9--9--9--9-x------|
|--------------------------------|-----------------x--9/8-|
|--------------------------------|------------------------|
|--------------------------------|------------------------|
|--------------------------------|------------------------|


122                        123                       124
|----7---------------------|-------------------------|--------------|
|---7---10p7---7-----------|-------------------------|--------------|
|-9b--------9----9-7--9p7--|-7---------------7--9p7--|---9----------|
|------------------------9-|---9-7--9p7---7-9------9-|--------------|
|--------------------------|-----------9-------------|--------------|
|--------------------------|-------------------------|--------------|


125            126             127            128             129
|--------10-12-|--12~~~~~------|--------10-12-|--12-----------|----------|
|-10/12--------|---------------|-10/12--------|---------------|----------|
|--------------|---------------|--------------|---------------|---11b--9-|
|--------------|---------------|--------------|---------------|----------|
|--------------|---------------|--------------|---------------|----------|
|--------------|---------------|--------------|---------------|----------|


130             131        132       
|---------10-12-|----------|----------||
|--10/12--------|----------|----------||
|---------------|----------|----------||
|---------------|----------|----------||
|---------------|----------|----------||
|---------------|----------|----------||

Tap to rate this tab
# A B C D E F G H I J K L M N O P Q R S T U V W X Y Z