Song name
# A B C D E F G H I J K L M N O P Q R S T U V W X Y Z

Blind Melon - Cheatem Street chords

Play according to the rhythm of the song.
Tocar de acuerdo al ritmo de la canción.

It was late one night....
e-----2/5-5~---5/7-10-9-7-7-7-7-7-7-----------------|
B-----2/5-5~---5/7-10-9-7-7-7-7-7-7-----------------|
G-----------------------7-7-7-7-7-7-----------------| (Intro, Verse & Chorus)
D-----------------------9-9-9-9-9-9-----------------|
A-0-0-------0-----------9-9-9-9-9-9-----------------|
E-----------------------7-7-7-7-7-7-7p9/------------|

I guess you're stuck with...
e-5-4-2---------0-2-4--5-4-2-------------------------------|
B-7-5-3----3-2--2-3-5--7-5-3-------------------------------|
G-7-6-4---4---4-2-4-6--7-6-4-------------------------------| (Pre-Chorus)
D-7-6-4--4------2-4-6--7-6-4-------------------------------|
A-5-4-2-2-------0-2-4--5-4-2-------------------------------|
E----------------------------------------------------------|

is a very good song.


my.mind.is.manipulated@hotmail.com
Tap to rate this tab
# A B C D E F G H I J K L M N O P Q R S T U V W X Y Z