Song name
# A B C D E F G H I J K L M N O P Q R S T U V W X Y Z

Blind Melon - No Rain tab

I know this song is already on the site.

However I thought I would post a more accurate version of this song.

So yeah here we go xD

Blind Melon
No Rain
Self Titled
1992 (same year I was born! . . . I feel so special)


e-||-----------------------------------|
B-||-10-10/12--------------------------|
G-||----------9------------------------|  4X
D-||-----------------------------------|
A-||-----------------------------------|
E-||-----------------------------------|

e-||--------------------------12-9---10-9---10-9----10--|
B-||---10-9---12-9---10-9-------------------------------|
G-||-9------9------9------9-9------9------9------9------|
D-||----------------------------------------------------|
A-||----------------------------------------------------|
E-||----------------------------------------------------|

e-||-9109912991099129910991299109912---|
B-||-9109912991099129910991299109912---|
G-||-----------------------------------|
D-||-----------------------------------|
A-||-----------------------------------|
E-||-----------------------------------|

e-||-91099109912991099149912991099-----|
B-||-9-999-999-999-999-999-999-999-----|
G-||-----------------------------------|
D-||-----------------------------------|
A-||-----------------------------------|
E-||-----------------------------------|

e-||-----------------------------------|
B-||-9-9/7-7/5-5/3-3/2-2/3-3/5-5/7-7/9-|
G-||-----------------------------------|
D-||-----------------------------------|
A-||-----------------------------------|
E-||-----------------------------------|

e-||------9---9----10-9----12----------|
B-||-9/10---10--10------10-------------|
G-||-----------------------------------|
D-||-----------------------------------|
A-||-----------------------------------|
E-||-----------------------------------|

e-||------------------------------7----|
B-||-x-9B(11)9-7-9-7---7--7-------7----|
G-||-x-9B(11)9-7-9-7---7--7-9B(11)-----|
D-||-----------------9--9--------------|
A-||-----------------------------------|
E-||-----------------------------------|

e-||---------7--------------------------------------------|
B-||-------7---10-7---7-----------------------------------|
G-||-9B(11)---------9---9-7-9-7---7---------------7-9-7---|
D-||----------------------------9---9-7-9-7---7-9-------9-|
A-||----------------------------------------9-------------|
E-||------------------------------------------------------|

So yep that's about it have fun

Any questions comments or whatnot email me at dr.porkchop.wurd@gmail.com
Tap to rate this tab
 
# A B C D E F G H I J K L M N O P Q R S T U V W X Y Z