Song name
# A B C D E F G H I J K L M N O P Q R S T U V W X Y Z

Blind Melon - Skinned tab

-------------------------------------------------------------------------------
			     Skinned - Blind Melon
-------------------------------------------------------------------------------
Tabbed by: Brandon Stallsmith
Email: bjstallsmith@niacc.edu

This is song number four off of the albumn "Soup" and also one of my favorite Blind
songs.  I couldn't find a good tab for it anywhere so I decided to make one for it.  Please
me know if I need to make any corrections at all.  This is also my first tab so go easy 
me haha thanks.

Tuning: Standard

e|-----------------3--------------------------------3------------------------|
B|-2h3p2p0---0-----3---1---0-----0-----3-1-0--------3---1---0-----0----------|
G|---------2-------0---0---0-----0-----------0------0---0---0-----0----------|
D|---------------------------------------------------------------------------|
A|---------------------------------------------------------------------------|
E|--------------3--------------------------------3---------------------------|

e|-----------------3-----------------------------3---------------------------|
B|-3-1-0-------3---0-------------------------3---0---------------------------|
G|-------0-----1---1---1-----1---------------1---1---1-----1-----------------|
D|-------------2---2---2-----2--2-0---0------2---2---2-----2--2-0---0--------|
A|-------------2---2---2-----2------2--------2---2---2-----2------2----------|
E|----------0-----------------------------0----------------------------------|

That's all I have for now I'll try to update it as soon as possible, thanks.

-Brandon

| /  slide up
| \  slide down
| h  hammer-on
| p  pull-off
| ~  vibrato
| +  harmonic
| x  Mute note
===============================================================================
Tap to rate this tab
 
# A B C D E F G H I J K L M N O P Q R S T U V W X Y Z