Blind Pilot - The Bitter End chords

Highlighted       Show chord diagrams
The Bitter End
Blind Pilot


Intro/First Verse:
|----------------------------------------------------------------|
|----------------------------------------------------0-----------|
|----0--2/4\2--0---0-----0------------2/4--2-0---0-----(0)----0--|
|--0---0----------2---2-2---2-0-----0----------2---2-------2-----|
|----------------------------------------------------------------|
|----------------------------------------------------------------|


If ever you should die I know I'll shave my head
Its not a morbid thought, I mean it out of love

Refrain:
   B   C->D      (riff)    C
|------------2-2-----------0-0--|
|------------3-3-----------1-1--|
|--4-4-5/-7--2-2-(2h4-2-0)-0-0--|
|--4-4-5/-7--0-0-----------2-2--|
|--2-2-3/-5----------------3-3--|
|-------------------------------|
 B         C->D  D                      C
Come back daddy come back to the bitter end
Come back daddy hounds-tooth coats and vitamins

G                 Em
If ever the sea claims our cities on the coast
Before the last bridge blows I know I will propose

Come back baby armed with paddles in your hands
Come back baby come back to the bitter end

G

The soil on the spade will be my love and hurt
                                             B   C->D  
C      B   C->D  D(riff) C
The cell-phone satellites will hurl to the earth         to the earth

A             F             C            F
  But in the moon there is half of our shadow on
A              F                C                   F
  From in the womb there are strange sounds on the waterfront
        G
and it takes a monk to lose it all

C F->G G (b-3/5-3-1) F
C F->G G (b-3/5-3-1) F

 C         F->G  G                      F
Come back baby  come back to the bitter end
Come back everything that caught up in the plans

Come back baby come back to the bitter end
Come back everything that put salt in the sand
Tap to rate this tab
 
# A B C D E F G H I J K L M N O P Q R S T U V W X Y Z