Song name
# A B C D E F G H I J K L M N O P Q R S T U V W X Y Z

Blind Syd - Lights Out Over Tbc tab

lights out over t.b.c
by: blind_syd
guitardude@ameritech.net

 this was the first song blind_syd (my band) ever wrote. enjoy!
HAMMER-*
PULL-+


e--2-2----2+1*2+1------4-4----2+1*2+1---|
B--2-2-----------*2----6-6-----------*2-|
G--3-3-----------------6-6--------------|
D--4-4-----------------6-6--------------|
A--4-4-----------------4-4--------------|
E--2-2-----------------4-4--------------|


e--6-6----2+1*2+1------7-7----2+1*2+1-4-|
B--8-8-----------*2----7-7--------------|
G--8-8-----------------8-8--------------|
D--8-8-----------------9-9--------------|
A--6-6-----------------9-9--------------|
E--6-6-----------------7-7--------------|
Tap to rate this tab
 
# A B C D E F G H I J K L M N O P Q R S T U V W X Y Z