Song name
# A B C D E F G H I J K L M N O P Q R S T U V W X Y Z

Blind Vision - Nothings Ever Easy tab

This is a tab by me and my band. The guitar parts were created by me. Dropped D Tuning!!!!!!

Intro
-------------------------------------|
-------------------------------------|
-------------------------------------|
---0-------------0-------------------|
---0-------------0-------------------| X2
---0-------------0-------------------|

----------------------------------------|
----------------------------------------|
----------------------------------------|
----------------------------------------|
----------------------------------------|
---0-0-3h5-0-0-0-5p3-0------------------| X4

----------------------------------------|
----------------------------------------|
----------------------------------------|
---0-0-3h5-0-0-0-5p3-0------------------|
---0-0-3h5-0-0-0-5p3-0------------------|
---0-0-3h5-0-0-0-5p3-0------------------| X

------------------------------|
------------------------------|
------------------------------|
------------------------------|
------------------------------|
---0-00000-00000-00-----------| X2

Verses
----------------------------------------------|
----------------------------------------------|
----------------------------------------------|
---3h5-00--2h3-0-00-2h3-00--------------------|
---3h5-00--2h3-0-00-2h3-00--------------------|
---3h5-00--2h3-0-00-2h3-00--------------------| X4

Chorus X2
-------------------------------------------|
-------------------------------------------|
-------------------------------------------|
---s5-X-3--3--8-X-5-XXXXX------------------|
---s5-X-3--3--8-X-5-XXXXX------------------|
---s5-X-3--3--8-X-5-XXXXX------------------|

-------------------------------------------|
-------------------------------------------|
-------------------------------------------|
---s5-X-3-3-XX-10-8-0h3h5--5---------------|
---s5-X-3-3-XX-10-8-0h3h5--5---------------|
---s5-X-3-3-XX-10-8-0h3h5--5---------------|

Solo
----------------------------------------------------------------------------|
--s11--8-------------------------13b-11-13b-11-13b-11-13b-11----------------|
----------10p7-10-7h10-7h10s12-------------------------------12p10-12~~~----|
----------------------------------------------------------------------------|
----------------------------------------------------------------------------|
----------------------------------------------------------------------------|

----------------------------------------------------------------13-------15-|
--s11--8-------------------------13b-11-13b-11-13b-11-s15-13h15----15p13----|
----------10p7-10-7h10-7h10s12----------------------------------------------|
----------------------------------------------------------------------------|
----------------------------------------------------------------------------|
----------------------------------------------------------------------------|


Arrangement
Intro
Verse
Chorus
Verse
Chorus
Verse (muted X2)
Chorus
Solo
End
Tap to rate this tab
# A B C D E F G H I J K L M N O P Q R S T U V W X Y Z