Song name
# A B C D E F G H I J K L M N O P Q R S T U V W X Y Z

Blind Willie Mctell - Georgia Rag tab

verse
0----x----x------2-----2-----2-|
2----x----x------2-----2-----2-|
0----x----x------3-----3-----3-|
2----x----x------2-----2-----2-|
0----x----x------x---4-------x-|
x----4----3----2-----------2---|

Chorus
doin' that rag       ...That Georgia Rag
-2----------2---------0-------0-|
-4----------4---------3-------3-|
-2----------2---------1-------1-|
-4----------4---------0-------0-|
2----------2----------2-------2-|
x----------x---------0-------0--|

Repeat verse
...Like a bee  Shake it like a ship on the sea
-----2-----3-------0------------x-----x------2-|
-----4-----5-------2------------x-----x------5-|
-----4-----5-------0------------x-----x------3-|
-----4-----5-------2------------x-----x------2-|
-----2-----3------0-------------x-----x------4-|
-----x-----x------x-------------4-----3-----2--|
Tap to rate this tab
 
# A B C D E F G H I J K L M N O P Q R S T U V W X Y Z