Song name
# A B C D E F G H I J K L M N O P Q R S T U V W X Y Z

Blind Witness - Baby One More Notch tab

----------------------------------------------------------------------------
Blind Witness-Baby One More Notch
----------------------------------------------------------------------------

-Tabbed by: timax

-Drop B(B-F#-B-E-G#-C#)

/ = slide up
\ = slide down
h = hammer on 
p = pull off
b = bend
~ = vibrato
+ = Harmonic

Lead Guitar
  
INTRO      
C#|------------------------------------------------------------------------|
G#|------------------------------------------------------------------------|
 E|------------------------------------------------------------------------|
 B|----000-000-00-000------000-000-00-000--------000-000-00-000------000---|
F#|----000-000-00-000------000-000-00-000--------000-000-00-000------000---|
 B|-1b-000-000-00-000-031b-000-000-00-000-1b1b1b-000-000-00-000-031b-000---|
       ... ... .. ...      ... ... .. ...        ... ... .. ...      ... 

C#|------------------------------------------------------------------------|
G#|------------------------------------------------------------------------|
 E|------------------------------------------------------------------------|
 B|-////////////////////////\\\\\\\\////////\\\\//////////////////////////-|
F#|-////////////////////////\\\\\\\\////////\\\\/////////////////////////--|
 B|-////////////////////////\\\\\\\\////////\\\\////////////////////////---|

C#|------------------------------------------------------------------------|
G#|------------------------------------------------------------------------|
 E|------------------------------------------------------------------------|
 B|----000-000-00-000------000-000-00-000--------000-000-00-000------------|
F#|----000-000-00-000------000-000-00-000--------000-000-00-000------------|
 B|-1b-111-111-11-111-031b-111-111-11-111-1b1b1b-111-111-11-111-031b-------|
       ... ... .. ...      ... ... .. ...        ... ... .. ... 

C#|------------------------------------------------------------------------|
G#|------------------------------------------------------------------------|
 E|------------------------------------------------------------------------|
 B|-000-000-00-000--------0~-----------------------------------------------|
F#|-000-000-00-000--------0~-----------------------------------------------|
 B|-111-111-11-111-1b1b1b-0~-----------------------------------------------|
    ... ... .. ...  
    
Riff I x2
C#|------------------------------------------------------------------------|
G#|------------------------------------------------------------------------|
 E|------------------------------------------------------------------------|
 B|----------------------------------5-7-8-5-7-8-------------5-7-8-7-------|
F#|---4-8-5---5--5--5--5--4--4--4--4-------------------5-7-8---------4-----|
 B|-0-------0--0--0--0--0--0--0--0---------------5-7-8---------------------|
    .       .  .  .  .  .  .  .  .

C#|------------------------------------------------------------------------|
G#|------------------------------------------------------------------------|
 E|------------------------------------------------------------------------|
 B|------------------------------------------------------------------------|
F#|---4-8-5---5--5--5--5--4--4--4--4---------------------------------------|
 B|-0-------0--0--0--0--0--0--0--0---5-7-8-5-7-8-55555555-88888888---------|
    .       .  .  .  .  .  .  .  .

CHORUS x2
C#|------------------------------------------------------------------------|
G#|------------------------------------------------------------------------|
 E|------------------------------------------------------------------------|
 B|-------------------------------------------------8-7-5------------------|
F#|-8-7-5-7-8-7-5\4-8-7-5-7-8-7-5\4-8-7-5-7-8-7-5\4-------8-7-5------------|
 B|------------------------------------------------------------------------|

RIFF I X2
CHORUS X2

POWER CHORD x2 (dont let ring)
C#|------------------------------------------------------------------------|
G#|------------------------------------------------------------------------|
 E|-3-5-7------------------------------------------------------------------|
 B|-3-5-7-7-8--------------------------------------------------------------|
F#|-1-3-5-8-8--------------------------------------------------------------|
 B|-------7-8--------------------------------------------------------------|

RIFF II 
C#|------------------------------------------------------------------------|
G#|------------------------------------------------------------------------|
 E|------------------------------------------------------------------------|
 B|------------------------------------------------------------------------|
F#|------------------------------------------------------------------------|
 B|-16161616-14141414-13131313-1111111111111111-14141414-13131313h1414p1313|

C#|------------------------------------------------------------------------|
G#|------------------------------------------------------------------------|
 E|------------------------------------------------------------------------|
 B|------------------------------------------------------------------------|
F#|------------------------------------------------------------------------|
 B|-99999999-14141414-13131313h1414p1313-1111111111111111-14141414-13131313|


C#|------------------------------------------------------------------------|
G#|------------------------------------------------------------------------|
 E|------------------------------------------------------------------------|
 B|------------------------------------------------------//////////////////|
F#|------------------------------------------------------//////////////////|
 B|-h1414p1313-99999999-14141414-13131313h1414p1313-14b~-//////////////////|

RIFF III x3                       x1
C#|------------------------------|-----------------------------------------|
G#|------------------------------|-----------------------------------------|
 E|------------------------------|-----------------------------------------|
 B|-000-00-0-000-0-00------------|-000-00-0-000-0-00-0---------------------|
F#|-000-00-0-000-0-00---8---7-5-4|-000-00-0-000-0-00-0---------------------|
 B|-000-00-0-000-0-00-0---0------|-000-00-0-000-0-00-0---------------------|
    ... .. . ... . .. .   .        ... .. . ... . .. .

|---------------------------------TABARNAK---------------------------------|
                                 
BREAKDOWN              x2
C#|-------------------|----------------------------------------------------|
G#|-------------------|----------------------------------------------------|
 E|12b~-12b12b12b-12b~|----------------------------------------------------|
 B|-------------------|000-00-0-000-000-000-000-00-0-000-0-00-0------------|
F#|-------------------|000-00-0-000-000-000-000-00-0-000-0-00-0---8---7-5-4|
 B|-------------------|000-00-0-000-000-000-000-00-0-000-0-00-0-0---0------|
                       ... .. . ... ... ... ... .. . ... . .. . .   .

RIFF III                                  
C#|------------------------------------------------------------------------|
G#|------------------------------------------------------------------------|
 E|------------------------------------------------------------------------|
 B|------------------------------------------------------------------------|
F#|-4444555577778888121212127777101010108888-------------------------------|
 B|------------------------------------------------------------------------|
                                              
   x3
C#|------------------------------------------------------------------------\
G#|------------------------------------------------------------------------\
 E|------------------------------------------------------------------------\
 B|---0-8-7-5--------------------------------------------------------------\
F#|-----------8-7-5-0-5-7-8-7-5-0-------3h5--------------------------------\
 B|-0-----------------------------0h3h5-----3-5-0--------------------------\
    .

C#|------------------------------------------------------------------------/
G#|------------------------------------------------------------------------/
 E|------------------------------------------------------------------------/
 B|---0-8-7-5--------------------------------------------------------------/
F#|-----------8-7-5-0-5-7-8-7-5-0-4444555577778888121212127777101010108888-/
 B|-0----------------------------------------------------------------------/
    .

C#|------------------------------------------------------------------------|
G#|------------------------------------------------------------------------|
 E|------------------------------------------------------------------------|
 B|-0-0--------------------------------------------------------------------|
F#|-0-0--------------------------------------------------------------------|
 B|-0-0--------------------------------------------------------------------|
    . . 

BREAKDOWN
C#|------------------------------------------------------------------------|
G#|------------------------------------------------------------------------|
 E|------------------------------------------------------------------------|
 B|-0-0-0--0--4-2-0-0--0--0-0-4----0-0--0-0-0--0--4-2-0-0-0--0-0-4-2--0-0--|
F#|-0-0-0--0--4-2-0-0--0--0-0-4-2+-0-0--0-0-0--0--4-2-0-0-0--0-0-4-2--0-0--|
 B|-1-1-1--1--4-2-1-1--1--1-1-4----0-0--0-0-0--0--4-2-0-0-0--0-0-4-2--0-0--|
    . . .  .  . . . .  .  . .      . .  . . .  .  . . . . .  . .      . .
Tap to rate this tab
# A B C D E F G H I J K L M N O P Q R S T U V W X Y Z