Song name
# A B C D E F G H I J K L M N O P Q R S T U V W X Y Z

Blinded Colony - Contagious Sin tab

			     Contagious Sin - Blinded Colony
-------------------------------------------------------------------------------
Tabbed by: Bubbelbuz
Email: Bubbelbuz@googlemail.com


I dont know the tuning but i've played it in Drop C

INTRO

D|---------------------------------------------------------------------------|
A|---------10-----10-----10-----10-----10------------------------------------|
F|---7---9----7-9----7-9----7-9----7-9---------------------------------------|
C|---------------------------------------------------------------------------|
G|---------------------------------------------------------------------------|
C|---------------------------------------------------------------------------|

D|---------------------------------------------------------------------------|
A|----------10------10------10------10------10-------------------------------|
F|---9---10----9-10----9-10----9-10----9-10----------------------------------|
C|---------------------------------------------------------------------------|
G|---------------------------------------------------------------------------|
C|---------------------------------------------------------------------------|

D|---------------------------------------------------------------------------|
A|----------11------11------11------11------11-------------------------------|
F|---9---10----9-10----9-10----9-10----9-10----10-9-7-5-7-5------------------|
C|----------------------------------------------------------8----------------|
G|---------------------------------------------------------------------------|
C|---------------------------------------------------------------------------|

D|---------------------------------------------------------------------------|
A|---------10-----10-----10-----10-----10------------------------------------|
F|---7---9----7-9----7-9----7-9----7-9---------------------------------------|
C|---------------------------------------------------------------------------|
G|---------------------------------------------------------------------------|
C|---------------------------------------------------------------------------|

D|---------------------------------------------------------------------------|
A|----------10------10------10------10------10-------------------------------|
F|---9---10----9-10----9-10----9-10----9-10----------------------------------|
C|---------------------------------------------------------------------------|
G|---------------------------------------------------------------------------|
C|---------------------------------------------------------------------------|

D|---------------------------------------------------------------------------|
A|----------11------11------11------11------11-------------------------------|
F|---9---10----9-10----9-10----9-10----9-10----10-9-7-5-7-5---12-10-9-7-9-7--|
C|----------------------------------------------------------8------------- 10|
G|---------------------------------------------------------------------------|
C|---------------------------------------------------------------------------|

D|---------------------------------------------------------------------------|
A|---------10-----10-----10-----10-----10------------------------------------|
F|---7---9----7-9----7-9----7-9----7-9---------------------------------------|
C|---------------------------------------------------------------------------|
G|---------------------------------------------------------------------------|
C|---------------------------------------------------------------------------|

D|---------------------------------------------------------------------------|
A|----------10------10------10------10------10-------------------------------|
F|---9---10----9-10----9-10----9-10----9-10----------------------------------|
C|---------------------------------------------------------------------------|
G|---------------------------------------------------------------------------|
C|---------------------------------------------------------------------------|

D|---------------------------------------------------------------------------|
A|----------11------11------11------11------11-------------------------------|
F|---9---10----9-10----9-10----9-10----9-10----------------------------------|
C|---------------------------------------------------------------------------|
G|---------------------------------------------------------------------------|
C|---------------------------------------------------------------------------|

D|---------------------------------------------------------------------------|
A|---------------------------------------------------------------------------|
F|-----------12-------12-------12-------12-------12--------------------------|
C|---10---12----10-12----10-12----10-12----10-12-----------------------------|
G|---------------------------------------------------------------------------|
C|---------------------------------------------------------------------------|

D|---------------------------------------------------------------------------|
A|---------10-----10-----10-----10-----10------------------------------------|
F|---7---9----7-9----7-9----7-9----7-9---------------------------------------|
C|---------------------------------------------------------------------------|
G|---------------------------------------------------------------------------|
C|---------------------------------------------------------------------------|

D|---------------------------------------------------------------------------|
A|----------10------10------10------10------10-------------------------------|
F|---9---10----9-10----9-10----9-10----9-10----------------------------------|
C|---------------------------------------------------------------------------|
G|---------------------------------------------------------------------------|
C|---------------------------------------------------------------------------|

D|---------------------------------------------------------------------------|
A|----------11------11------11------11------11-------------------------------|
F|---9---10----9-10----9-10----9-10----9-10----10-9-7-5-7-5---12-10-9-7-9-7--|
C|----------------------------------------------------------8------------- 10|
G|---------------------------------------------------------------------------|
C|---------------------------------------------------------------------------|
Tap to rate this tab
# A B C D E F G H I J K L M N O P Q R S T U V W X Y Z