Song name
# A B C D E F G H I J K L M N O P Q R S T U V W X Y Z

Blindside - Roads tab

Tuning:Standard

e|-------------------------------|     X 3
B|-------------------------------|
G|-------------------------------|
D|-------------------------------|
A|----------5----7---------------|
E|--------------------3----5-----|



e|-------------------------------|     
B|-------------------------------|
G|-------------------------------|
D|-------------------------------|
A|----------5----7---------------|
E|--------------------5----3-----|


Repear throughout verse

Chorus
e|-------------------------------------------------------------------| 
B|-------------------------------------------------------------------|
G|-------------------------------------------------------------------|
D|-------------------------------------------------------------------|
A|5-5-5-5-5-5-5-5--7-7-7-7-7-7-7-------------------------------------|
E|-------------------------------5-5-5-5-5-5-5-5------3-3-3-3-3-3-3-3|

e|-------------------------------|     X 3
B|-------------------------------|
G|-------------------------------|
D|-------------------------------|
A|----------8-8-8-8-8-8-8-8------|
E|-------------------------------|

Back into chrous

First tab, i know im missing the weird Bridge thing at the end, Any question J_ace36@hotmail.com
Tap to rate this tab
# A B C D E F G H I J K L M N O P Q R S T U V W X Y Z