Song name
# A B C D E F G H I J K L M N O P Q R S T U V W X Y Z

Blindside - Superman tab

Help us improve GuitareTab! Take a short survey!
verse
e(------------------------------)(----------------------------)
b(------------------------------)(----------------------------)
g(------------------------------)(----------------------------)
d(--------2-/4/5b-7-------2-4-5-)(--22-22-2-/4/5b-22-22-2-4-5-)
a(------------------------------)(--22-22---------22-22-------)
D(--22-22-----------22-22-------)(--22-22---------22-22-------)
  pm.. ..           .. ..

chorus
e(----------------)(-----)(----------------------------------)(----------)
b(----------------)(-----)(----------------------------------)(--------5-)
g(----------------)(-----)(----------------------------------)(----------)
d(--2--568-2--554-)(--xx-)(--8-8888-8888-8888-7777-7777-7777-)(--2-5-----)
a(--2--568-2--554-)(--xx-)(--8-8888-8888-8888-7777-7777-7777-)(------5---)
D(--2--568-2--554-)(--xx-)(--8-8888-8888-8888-7777-7777-7777-)(----------)

bridge
e(---------)(-----------)(--------------)
b(---------)(-----------)(--------------)
g(---------)(--4-4-x4-4-)(--------------)
d(---------)(--2-2-x2-2-)(--222-x222-x2-)
a(---------)(--2-2-x2-2-)(--222-x222-x2-)
D(--22x2xx-)(--2-2-x2-2-)(--222-x222-x2-)
Related for Superman tab