Song name
# A B C D E F G H I J K L M N O P Q R S T U V W X Y Z

Blindside - Midnight tab

I recently heard this song and loved it. I came to look up tabs and i saw the 
other horrible one that does a diservice to this amazing song.
So here is my tab, now to go back to studying for finals..
btw this is my first tab soo dont expect great things
thanks,

Verse:
|------------------------------|
|------------------------------|
|------------------------------|
|-----5-----------2------3-----| repeat as needed
|-----5-(x16)-----0(x8)--0(x8)-|
|-----5-----------0------0-----|

Chorus:
|--------------------------------------------------|
|--------------------------------------------------|
|---------2---------3-2--------2---2-----2---2-----|
|-----0h3---3-----------3----3---3-----3---3-------| Repeat as needed
|---1-------------5--------5---------3-------------|
|---------------5----------------------------------| 

Bridge:
|----------------------------------------------------12--|
|--------------------------------------------------------|
|--------------------------------------------------12----|
|------------------------------------0----5h7-7h8--------| repeat as needed
|----5-7-0-8-7-0-5-7-0-8-7-0-7-8-------------------------|
|--0(ring)--------------------------8----5---------------|
                     not sure about these 12's here ^^
Tap to rate this tab
 
# A B C D E F G H I J K L M N O P Q R S T U V W X Y Z