Song name
# A B C D E F G H I J K L M N O P Q R S T U V W X Y Z

Blindside - There Must Be Something In The Water tab

-------------------------------------------------------------------------------
			     There Must Be Something in the Water - Blindside
-------------------------------------------------------------------------------
Tabbed by: Gecko


Yo, this is my first tab. So lemme know how you think I did...if you even care *sobs*.

Tuning: Drop Db (Eb Bb Gb Db Ab Db)

Intro:

eb|---------------------------------------------------------------------------|
Bb|---------------------------------------------------------------------------|
Gb|---------------------------------------------------------------------------|
Db|2-0-0-0--3-0-0-0--5-6-5--0-0-0-----2-0-0-0--3-0-0-0--5-8-6-----------------|
Ab|--0-0-0----0-0-0---------0-0-0-------0-0-0----0-0-0------------------------|
Db|--0-0-0----0-0-0---------0-0-0-------0-0-0----0-0-0------------------------|
     x x x    x x x         x x x       x x x    x x x

eb|---------------------------------------------------------------------------|
Bb|---------------------------------------------------------------------------|
Gb|---------------------------------------------------------------------------|
Db|2-0-0-0--3-0-0-0--5-6-5--0-0-0-----2-0-0-0--3-0-0-0--5-8-6--6-6-6-6--------|
Ab|--0-0-0----0-0-0---------0-0-0-------0-0-0----0-0-0------------------------|
Db|--0-0-0----0-0-0---------0-0-0-------0-0-0----0-0-0------------------------|
     x x x    x x x         x x x       x x x    x x x

Verse:

eb|---------------------------------------------------------------------------|
Bb|---------------------------------------------------------------------------|
Gb|---------------------------------------------------------------------------|
Db|5-5----6-6-6-6-----5-5----6-6-6-10---------------2--5-2-3--6-5-2-----------|
Ab|3-3----6-6-6-4-----3-3----4-4-4-8-----x2 then---------------------3-3-3----|
Db|x-x----6-6-6-x-----x-x----x-x-x-x---------------------------------------6--|

Chorus

eb|------------------------------------------------------------------------------|
Bb|------------------------------------------------------------------------------|
Gb|------------------------------------------------------------------------------|
Db|2-0-0-0--3-0-0-0--6-6-6-6---5-6-6---3-0-0-0-5-5-5-5--8-8-8-8--9-10-13-13-13-13|
Ab|--0-0-0----0-0-0------------3-6-4-----0-0-0-3-3-3-3--6-6-6-6--7-8--11-11-11-11|
Db|--0-0-0----0-0-0------------x-6-x-----0-0-0-x-x-x-x--x-x-x-x--x-x--x--x--x--x-|
     x x x    x x x                      x x x

eb|---------------------------------------------------------------------------|
Bb|---------------------------------------------------------------------------|
Gb|---------------------------------------------------------------------------|
Db|5-6-6--3--5-5-5-5---5-3-6-5------------------------------------------------|
Ab|3-6-4-----3-3-3-3---3-1-6-5------------------------------------------------|
Db|x-6-x-----x-x-x-x---x-x-6-5------------------------------------------------|

Repeat Verse

Repeat Chorus

Bridge:

eb|---------------------------------------------------------------------------|
Bb|---------------------------------------------------------------------------|
Gb|---------------------------------------------------------------------------|
Db|3-3-3---3-3-3---3--------3-3-3---3-3-3---3---------------------------------|
Ab|3-3-3---3-3-3---3---x4---3-3-3---3-3-3---3-----x8--------------------------|
Db|3-3-3---3-3-3---3--------3-3-3---3-3-3---3---------------------------------|
                            x x x   x x x   x
Repeat Chorus

Outro (Play first half of Intro)

Ending: This part is hard. The guitar is playing the bridge as other stringed 
instruments are swirling around making a beautiful noise. :D

That's it! Thanks for letting me into your brains...or your fingers or strings or whatever.



************************************

| /   slide up
| \   slide down
| h   hammer-on
| p   pull-off
| ~   vibrato
| +   harmonic
| x   Mute note
| b   Bend
| pb  Pre-bend
| br  Bend release
| pbr Pre-bend release
| brb Bend release bend

************************************
Tap to rate this tab
# A B C D E F G H I J K L M N O P Q R S T U V W X Y Z