Song name
# A B C D E F G H I J K L M N O P Q R S T U V W X Y Z

Blindside - Time Will Change Your Heart tab

Blindside
Tabbed====  CadmanX
Drop- D    D A D G B E

Intro...
---------------------------------------------------------
---------------------------------------------------------
---------------------------------------------------------
---3--3-1-3-4-1-3--3-1-3-4--1----------------------------
---------------------------------------------------------
---------------------------------------------------------

Verse
-------------------------------------------------------------
-------------------------------------------------------------
-------------------------------------------------------------
--33-3-3-3-3-3-33-6666-8~~----33-3-3-3-3-3-33-6666-8~~-------
--33-3-3-3-3-3-33-6666-8~~----33-3-3-3-3-3-33-6666-8~~-------
--33-1-3-1-3-1-33-6666-8~~----33-1-3-1-3-1-33-6666-8~~---1-11

Chorus
----------------------------------------------------------------
----------------------------------------------------------------
----------------------------------------------------------------
-1-3-4-6-8-0-11-8-6-6-888-9~~-1-3-4-6-8-0-11-8-6-6-888-9~~--111-
-1-3-4-6-8-0-11-8-6-6-888-9~~-1-3-4-6-8-0-11-8-6-6-888-9~~--111-
-1-3-4-6-8-0-11-8-6-6-888-9~~-1-3-4-6-8-0-11-8-6-6-888-9~~--111-

Go back to intro...
Tap to rate this tab
 
# A B C D E F G H I J K L M N O P Q R S T U V W X Y Z