Song name
# A B C D E F G H I J K L M N O P Q R S T U V W X Y Z

Blindside - Hooray Its La tab

Tabber: excalibur627@hotmaill.com
I figured out my original solo was flawed. This is it


|-------------------------------|
|--5b-5-5-5-5-5-5-5-3-5-6-5-3-0-|
|-------------------------------|
|-------------------------------|
|-------------------------------|
|-------------------------------| x  3 or 4 times at the end of the solo play

|---------------------------------|
|-------6b-6b-6b-6b-6-------------|
|---------------------------------|
|-2-2-----------------------------|
|-2-2-----------------------------|
|-0-0-----------------------------|

Happy playing!
Tap to rate this tab
# A B C D E F G H I J K L M N O P Q R S T U V W X Y Z