Guitaretab - guitar tabs
Song name
# A B C D E F G H I J K L M N O P Q R S T U V W X Y Z

Blindside - Empty Box tab

Drop D tuning

(Verse)
e|------------------------------------------------|
B|------------------------------------------------|
G|------------------------------------------------|
D|--2h3p2-4-2h3p2-4-2/4/2-2-------5--------7-5-4--| x4
A|--2h3p2-4-2h3p2-4-2/4/2-2--5---------5---7-5-4--|
D|--2h3p2-4-2h3p2-4-2/4/2-2----------------7-5-4--|

(Pre-Chorus)
e|------------------------------------------------|
B|------------------------------------------------|
G|------------------------------------------------|
D|--2h3-4-2h3-4-4h5p4--4-5-7-2-3-4----------------| x4
A|--2h3-4-2h3-4-4h5p4--4-5-7-2-3-4----------------|
D|--2h3-4-2h3-4-4h5p4--4-5-7-2-3-4----------------|

(Chorus) Guitar 1
e|------------------------------------------------|
B|------------------------------------------------|
G|------------------------------------------------|
D|--2-3-2--2-5-4--2-3-2---------------------------| x2
A|------------------------------------------------|
D|----------------------6-7-6--5-6-5--------------|
[ Tab from: http://www.guitaretab.com/b/blindside/51386.html ]
Guitar 2
e|------------------------------------------------|
B|--8~--------------------------------------------|
G|---------4----4--~---2----2--~---1--1~----------|
D|------------------------------------------------|
A|------------------------------------------------|
D|------------------------------------------------|

(Second Chorus)
e|------------------------------------------------|
B|------------------------------------------------|
G|--9-10-9--9-12-11--9-10-9--8-9-8-7-8-7----------|
D|--9-10-9--9-12-11--9-10-9--8-9-8-7-8-7----------|
A|--7--8-7--7-10--9--7--8-7--6-7-6-5-6-5----------|
D|------------------------------------------------|

(Bridge)
e|------------------------------------------------|
B|------------------------------------------------|
G|--7-7-7-9-9-x-x-9-9-x-x-9-9-x-x-----------------|
D|--7-7-7-9-9-x-x-9-9-x-x-9-9-x-x-----------------|
A|--5-5-5-7-7-x-x-7-7-x-x-7-7-x-x-----------------|
D|------------------------------------------------|

Thanks, please rate it after you learn it.
Related for Empty Box tab
Empty Box chords by Blindside