Song name
# A B C D E F G H I J K L M N O P Q R S T U V W X Y Z

Blindside - Cute Boring Love tab

Help us improve GuitareTab! Take a short survey!
----------------------------------------------------------------------------
		      Blindside - Cute Boring Love
----------------------------------------------------------------------------
Tabbed by: cky583 (Richard Ortiz)
Email: cortiz@columbus.rr.com

Tuning: Drop-D 1/2 Step Down (low to high) Db Ab Db Gb Bb eb

INTRO
eb|-------------------------------------------------------------------|
Bb|-------------------------------------------------------------------|
Gb|------12-----11-----9----------------------------------------------|
Db|2-----10-----9------7----------------------------------------------|(x4)
Ab|2-----10-----9------7----------------------------------------------|
Db|2-----10-----9------7----------------------------------------------|

VERSE
eb|-------------------------------------------------------------------|
Bb|-------------------------------------------------------------------|
Gb|-------------------------------------------------------------------|
Db|-----------------------5-5-4---------------------------------------|(x?)
Ab|2-2-0-2-2--5-5--2-3-3-3---3-3--------------------------------------|
Db|-------------------------------------------------------------------|

CHORUS
eb|-------------------------------------------------------------------|
Bb|-------------------------------------------------------------------|
Gb|-------------------------------------------------------------------|
Db|2202-999-10-10-10-999-77-------------------------------------------|(x4)
Ab|2202-999-10-10-10-999-77-------------------------------------------|
Db|2202-999 10-10-10-999-77-------------------------------------------|

PRE-CHORUS (after second verse only)
eb|1^2--1^2--1^2--1---------------------------------------------------|
Bb|-------------------------------------------------------------------|
Gb|-------------------------------------------------------------------|
Db|-------------------------------------------------------------------|(x1)
Ab|-------------------------------------------------------------------|
Db|-------------------------------------------------------------------|

INTERLUDE 1
eb|-------------------------------------------------------------------|
Bb|-------------------------------------------------------------------|
Gb|99-7-99-44455555555------------------------------------------------|
Db|-------------------------------------------------------------------|(x4)
Ab|-------------------------------------------------------------------|
Db|-------------------------------------------------------------------|

INTERLUDE 2
eb|-------------------------------------------------------------------|
Bb|-------------------------------------------------------------------|
Gb|-------------------------------------------------------------------|
Db|-------------------------------------------------------------------|(x4)
Ab|77-5-77-222333-10-10-10-9-9----------------------------------------|
Db|-------------------------------------------------------------------|

I think that's about it and I'm 110% sure it's accurate. email me if you'd
like me to tab any more Blindside songs.


| ^  bend to appropriate pitch
| /  slide up
| \  slide down
| h  hammer-on
| p  pull-off
| ~  vibrato
| +  harmonic
| x  Mute note
============================================================================
Related for Cute Boring Love tab