Guitaretab - guitar tabs
Song name
# A B C D E F G H I J K L M N O P Q R S T U V W X Y Z

Blindside - Paintings tab

-------------------------------------------------------------------------------
			     Paintings - Blindside
-------------------------------------------------------------------------------
Tabbed by: Hugo Amarales
Email:alberamaral@aol.com

Tuning: D (DADGBE)

I only did the parts with distortion so the clean parts aren't on. But it's still a good tab.

 INTRO
E|---------------------------------------------------------------------------|
B|---------------------------------------------------------------------------|
G|---------------------------------------------------------------------------|
D|--1-1-1--6-6-6--4-4--9-9-9-9-9-9-9-----------------------------------------|
A|--1-1-1--6-6-6--4-4--9-9-9-9-9-9-9-----------------------------------------|
D|--1-1-1--6-6-6--4-4--9-9-9-9-9-9-9-----------------------------------------|

E|---------------------------------------------------------------------------|
B|---------------------------------------------------------------------------|
G|---------------------------------------------------------------------------|
D|--1-1-1--6-6-6--4-4--3-3-3-3-3-3-3-----------------------------------------|
A|--1-1-1--6-6-6--4-4--3-3-3-3-3-3-3-----------------------------------------|
D|--1-1-1--6-6-6--4-4--3-3-3-3-3-3-3-----------------------------------------|

Chorus

E|---------------------------------------------------------------------------|
B|---------------------------------------------------------------------------|
G|----------------------------------8-8-8-8--6-6-6-6--8-8-8-8-12-12-12-12----|
D|--3h4p3------9-9-9-9-9-9-9-9-9-9--x-x-x-x--x-x-x-x--x-x-x-x-xx-x--x-----|
A|--------h4---9-9-9-9-9-9-9-9-9-9--6-6-6-6--4-4-4-4--6-6-6-6--9-9--9--9-----|
D|-------------9-9-9-9-9-9-9-9-9-9-------------------------------------------|

E|---------------------------------------------------------------------------|
B|---------------------------------------------------------------------------|
G|-----------------------8-8-8-8--6-6-6-6--8-8-8-8-12-12-12-12---------------|
D|-9-9-9-9-9-9-9-9-9-9--x-x-x-x--x-x-x-x--x-x-x-x-xx-x--x-----------------| 
A|-9-9-9-9-9-9-9-9-9-9--6-6-6-6--4-4-4-4--6-6-6-6--9-9--9--9-----------------|
D|-9-9-9-9-9-9-9-9-9-9-------------------------------------------------------|

E|---------------------------------------------------------------------------|
B|---------------------------------------------------------------------------|
G|-----------------------8-8-8-8--6-6-6-6--8-8-8-8-12-12-12-12---------------|
D|-9-9-9-9-9-9-9-9-9-9--x-x-x-x--x-x-x-x--x-x-x-x-xx-x--x-----------------| 
A|-9-9-9-9-9-9-9-9-9-9--6-6-6-6--4-4-4-4--6-6-6-6--9-9--9--9-----------------|
D|-9-9-9-9-9-9-9-9-9-9-------------------------------------------------------|

E|---------------------------------------------------------------------------|
B|---------------------------------------------------------------------------|
G|--------------------8-8-8-8--6-6-6-6--8-8-8-8-12-12-12-12-12-12-12-12-12-12|
D|9-9-9-9-9-9-9-9-9-9-x-x-x-x--x-x-x-x--x-x-x-x-xx-x--x--x--x--x--x--x--x-| 
A-9-9-9-9-9-9-9-9-9-9-6-6-6-6--4-4-4-4--6-6-6-6--9-9--9--9--9--9--9--9--9--9-|
D|9-9-9-9-9-9-9-9-9-9--------------------------------------------------------|

Intro
E|---------------------------------------------------------------------------|
B|---------------------------------------------------------------------------|
G|---------------------------------------------------------------------------|
D|--1-1-1--6-6-6--4-4--9-9-9-9-9-9-9-----------------------------------------|
A|--1-1-1--6-6-6--4-4--9-9-9-9-9-9-9-----------------------------------------|
D|--1-1-1--6-6-6--4-4--9-9-9-9-9-9-9-----------------------------------------|
E|---------------------------------------------------------------------------|
B|---------------------------------------------------------------------------|
G|---------------------------------------------------------------------------|
D|--1-1-1--6-6-6--4-4--3-3-3-3-3-3-3-----------------------------------------|
A|--1-1-1--6-6-6--4-4--3-3-3-3-3-3-3-----------------------------------------|
D|--1-1-1--6-6-6--4-4--3-3-3-3-3-3-3-----------------------------------------|

Chorus

E|---------------------------------------------------------------------------|
B|---------------------------------------------------------------------------|
G|-----------------------8-8-8-8--6-6-6-6--8-8-8-8-12-12-12-12---------------|
D|--9-9-9-9-9-9-9-9-9-9--x-x-x-x--x-x-x-x--x-x-x-x-xx-x--x----------------|
A|--9-9-9-9-9-9-9-9-9-9--6-6-6-6--4-4-4-4--6-6-6-6--9-9--9--9----------------|
D|--9-9-9-9-9-9-9-9-9-9------------------------------------------------------|

E|---------------------------------------------------------------------------|
B|---------------------------------------------------------------------------|
G|-----------------------8-8-8-8--6-6-6-6--8-8-8-8-12-12-12-12---------------|
D|-9-9-9-9-9-9-9-9-9-9--x-x-x-x--x-x-x-x--x-x-x-x-xx-x--x-----------------| 
A|-9-9-9-9-9-9-9-9-9-9--6-6-6-6--4-4-4-4--6-6-6-6--9-9--9--9-----------------|
D|-9-9-9-9-9-9-9-9-9-9-------------------------------------------------------|
[ Tab from: http://www.guitaretab.com/b/blindside/52497.html ]
E|---------------------------------------------------------------------------|
B|---------------------------------------------------------------------------|
G|-----------------------8-8-8-8--6-6-6-6--8-8-8-8-12-12-12-12---------------|
D|-9-9-9-9-9-9-9-9-9-9--x-x-x-x--x-x-x-x--x-x-x-x-xx-x--x-----------------| 
A|-9-9-9-9-9-9-9-9-9-9--6-6-6-6--4-4-4-4--6-6-6-6--9-9--9--9-----------------|
D|-9-9-9-9-9-9-9-9-9-9-------------------------------------------------------|

E|---------------------------------------------------------------------------|
B|---------------------------------------------------------------------------|
G|--------------------8-8-8-8--6-6-6-6--8-8-8-8-12:--------------------------|
D|9-9-9-9-9-9-9-9-9-9-x-x-x-x--x-x-x-x--x-x-x-xx-:--------------------------| 
A-9-9-9-9-9-9-9-9-9-9-6-6-6-6--4-4-4-4--6-6-6-6-9-:--------------------------|
D|9-9-9-9-9-9-9-9-9-9--------------------------------------------------------|

Solo

E|---------------------------------------------------------------------------|
B|-11-11-11-11-11-11-11--9-9-9-9-9-9-9--7-7-7-7-7-7-7--6-6-6-6-6-6-6---------|
G|-x--x--x--x--x--x--x---x-x-x-x-x-x-x--x-x-x-x-x-x-x--x-x-x-x-x-x-x---------|
D|-8--8--8--8--8--8--8---6-6-6-6-6-6-6--4-4-4-4-4-4-4--3-3-3-3-3-3-3---------|
A|---------------------------------------------------------------------------|
D|---------------------------------------------------------------------------|

E|---------------------------------------------------------------------------|
B|-----------------7-7-7-7-7-7-7--6-6-6-6-6-6-6------------------------------|
G|--4-4-4-4-4-4-4--x-x-x-x-x-x-x--x-x-x-x-x-x-x--7-7-7-7-7-7-7---------------|
D|--x-x-x-x-x-x-x--4-4-4-4-4-4-4--3-3-3-3-3-3-3--x-x-x-x-x-x-x---------------|
A|--2-2-2-2-2-2-2--------------------------------5-5-5-5-5-5-5---------------|
D|---------------------------------------------------------------------------|

E|---------------------------------------------------------------------------|
B|--11-11-11-11-11-11-11--9-9-9-9-9-9-9--8-8-8-8-8-8-8--9-9-9-9-9-9-9--------|
G|---x--x--x--x--x--x--x--x-x-x-x-x-x-x--x-x-x-x-x-x-x--x-x-x-x-x-x-x--------|
D|---8--8--8--8--8--8--8--6-6-6-6-6-6-6--5-5-5-5-5-5-5--6-6-6-6-6-6-6--------|
A|---------------------------------------------------------------------------|
D|---------------------------------------------------------------------------|

E|---------------------------------------------------------------------------|
B|--11-11-11-11-11-11-11--12-12-12-12-12-12-12-12-12-12-12-12----------------|
G|---x--x--x--x--x--x-x---x--x--x--x--x--x--x--x--x--x--x-x----------------|
D|---8--8--8--8--8--8--8---9--9--9--9--9--9--9--9--9--9--9--9----------------|
A|---------------------------------------------------------------------------|
D|---------------------------------------------------------------------------|

Chorus

E|---------------------------------------------------------------------------|
B|---------------------------------------------------------------------------|
G|-----------------------8-8-8-8--6-6-6-6--8-8-8-8-12-12-12-12---------------|
D|--9-9-9-9-9-9-9-9-9-9--x-x-x-x--x-x-x-x--x-x-x-x-xx-x--x----------------|
A|--9-9-9-9-9-9-9-9-9-9--6-6-6-6--4-4-4-4--6-6-6-6--9-9--9--9----------------|
D|--9-9-9-9-9-9-9-9-9-9------------------------------------------------------|

E|---------------------------------------------------------------------------|
B|---------------------------------------------------------------------------|
G|-----------------------8-8-8-8--6-6-6-6--8-8-8-8-12-12-12-12---------------|
D|-9-9-9-9-9-9-9-9-9-9--x-x-x-x--x-x-x-x--x-x-x-x-xx-x--x-----------------| 
A|-9-9-9-9-9-9-9-9-9-9--6-6-6-6--4-4-4-4--6-6-6-6--9-9--9--9-----------------|
D|-9-9-9-9-9-9-9-9-9-9-------------------------------------------------------|

E|---------------------------------------------------------------------------|
B|---------------------------------------------------------------------------|
G|-----------------------8-8-8-8--6-6-6-6--8-8-8-8-12-12-12-12---------------|
D|-9-9-9-9-9-9-9-9-9-9--x-x-x-x--x-x-x-x--x-x-x-x-xx-x--x-----------------| 
A|-9-9-9-9-9-9-9-9-9-9--6-6-6-6--4-4-4-4--6-6-6-6--9-9--9--9-----------------|
D|-9-9-9-9-9-9-9-9-9-9-------------------------------------------------------|

E|---------------------------------------------------------------------------|
B|---------------------------------------------------------------------------|
G|--------------------8-8-8-8--6-6-6-6--8-8-8-8-12-12-12-12-12-12-12-12-12-12|
D|9-9-9-9-9-9-9-9-9-9-x-x-x-x--x-x-x-x--x-x-x-x-xx-x--x--x--x--x--x--x--x-| 
A-9-9-9-9-9-9-9-9-9-9-6-6-6-6--4-4-4-4--6-6-6-6--9-9--9--9--9--9--9--9--9--9-|
D|9-9-9-9-9-9-9-9-9-9--------------------------------------------------------|

Intro

E|---------------------------------------------------------------------------|
B|---------------------------------------------------------------------------|
G|---------------------------------------------------------------------------|
D|--1-1-1--6-6-6--4-4--9-9-9-9-9-9-9-----------------------------------------|
A|--1-1-1--6-6-6--4-4--9-9-9-9-9-9-9-----------------------------------------|
D|--1-1-1--6-6-6--4-4--9-9-9-9-9-9-9-----------------------------------------|

E|---------------------------------------------------------------------------|
B|---------------------------------------------------------------------------|
G|---------------------------------------------------------------------------|
D|--1-1-1--6-6-6--4-4--3-3-3-3-3-3-3-----------------------------------------|
A|--1-1-1--6-6-6--4-4--3-3-3-3-3-3-3-----------------------------------------|
D|--1-1-1--6-6-6--4-4--3-3-3-3-3-3-3-----------------------------------------|

| /  Slide up
| \  Slide down
| H  hammer-on
| P  pull-off
| ~  Vibrato
| +  Harmonic
| :  Ring
| TR Tremelo
| X  Mute note
===============================================================================
Related for Paintings tab