Guitaretab - guitar tabs
Song name
# A B C D E F G H I J K L M N O P Q R S T U V W X Y Z

Blindside - Across Waters Again tab

ok, this, like most Blindside songs, is easy to play, but hard to learn as far as timing 
 4/4 time signature is something that they rarely play. so due to this i am only able 
supply you with wat chords hes playing and youre gunna have to figure out the timing by yourself!

standard drop D tuning.

INTRO/CHORUS

e--------------------------------------------------------------------------|
b--------------------------------------------------------------------------|
g--------------------------------------------------------------------------|
d--7-7-7-7-7-7-7-7-7-7-7-7-7-7-7-7-10-10-10-10-10-10-10-10-9-9-9-9-9-9-9-9-|
a--7-7-7-7-7-7-7-7-7-7-7-7-7-7-7-7-10-10-10-10-10-10-10-10-9-9-9-9-9-9-9-9-|
D--7-7-7-7-7-7-7-7-7-7-7-7-7-7-7-7-10-10-10-10-10-10-10-10-9-9-9-9-9-9-9-9-|
[ Tab from: http://www.guitaretab.com/b/blindside/53956.html ]
e---------------------------|
b---------------------------|
g---------------------------|
d--0-0--0-0--0-0--0-0--0-0--|   how ever many times he does it...
a--0-0--0-0--0-0--0-0--0-0--|
D--0-0--0-0--0-0--0-0--0-0--|

VERSE *this is in 7/8 time*

e----------------|
b----------------|
g----5------5----|  played with the bass
d----------------|
a----------------|
D--3-5-0--3-5-0--|
verse pt.2
e-----
b-----
g--5--
d--5--  thats the chord hes playing while the bass is playing behind it
a-----
D-----

HEAVY RIFF/BRIDGE *this is also the outro. the outro is twice as slow tho*

*china* *china*

e-------------------------------------------|
a-------------------------------------------|
g-------------------------------------------|
d--0--5-3-6-3-5-6-0-0-0-5-3-6-3-5-3-/8-0-0--|  X=3
a--0--5-3-6-3-5-6-0-0-0-5-3-6-3-5-3-/8-0-0--|
D--0--5-3-6-3-5-6-0-0-0-5-3-6-3-5-3-/8-0-0--|

INTRO/CHORUS
VERSE PT.1
VERSE PT.2
VERSE PT.1
CHORUS
VERSE PT.1
VERSE PT.2
VERSE PT.1
CHORUS
HEAVY RIFF
CHORUS
HEAVY RIFF *SLOW*
Related for Across Waters Again tab