Song name
# A B C D E F G H I J K L M N O P Q R S T U V W X Y Z

Blindside - After Youre Gone tab

After You're Gone
By Blindside
c2004 Elektra Records

Drop d tuning

Intro/Verses
e-----------------------|
b-----------------------|
G--------------7--------|
D--0/3\0-0/3\0---0/3\0--|
A-----------------------|several times
D-----------------------|

The 1st time through the chorus there is no music, and
the second time it starts in the middle, then begins again.

Chorus
e--------------------------------------------------------------|
b--------------------------------------------------------------|
G----------------------5----7--10--7--10--10--5--10--5--7--10--|
D--3-0-5-7-8--5--8--3--5--0-x--x---x--x---x---x---x--x--x--x---|
A--3-0-5-7-8--5--8--3--3--0-5--8---5--8---8---3---8--3--5--8---|
D--3-0-5-7-8--5--8--3-----0------------------------------------|

e----------------------------|
b----------------------------|
G----------------------5-----|
D--3-0-5-7-8--5--8--3--5--0--|
A--3-0-5-7-8--5--8--3--3--0--|
D--3-0-5-7-8--5--8--3-----0--|

Solo
e-------------------------------------|
b-------------------------------------|
G-------------------------------------|
D----3---3---0---------3---5---3---0--|
A--5---5---1---1--3--5---5---1---1----|
D-------------------------------------|

i think that's it...
Tap to rate this tab
# A B C D E F G H I J K L M N O P Q R S T U V W X Y Z