Guitaretab - guitar tabs
Song name
# A B C D E F G H I J K L M N O P Q R S T U V W X Y Z

Blindside - Fell In Love With The Game tab

Title: Fell In Love With The Game
Artist: Blindside
Album: The Great Depression

Tag [0:00]
G[--------------8-8-8-9-9-9-9-9-9-]
D[-10-10-10-9-9-------------------]
A[-10-10-10-9-9-6-6-6-7-7-7-7-7-7-]
D[-10-10-10-9-9-------------------]

G[--------------8-8-8-9-9-9-9-9-9-9-]
D[-10-10-10-9-9---------------------]
A[-10-10-10-9-9-6-6-6-7-7-7-7-7-7-7-]
D[-10-10-10-9-9---------------------]

Verse1 [0:07]
G[-12-12-12-12--8-8-------------------8-8-8-9-9-9-]	
D[------------------8-9--10-10-10-9-9-------------]	(3x)
A[-10-10-10-10--6-6-6-6--10-10-10-9-9-6-6-6-7-7-7-]
D[-----------------------10-10-10-9-9-------------]

E[----------------------]
B[----------------------]
G[-12-12-12-12--8-8-----]	(2x)
D[------------------8-9-]
A[-10-10-10-10--6-6-6-6-]
D[----------------------]

Chorus1 [0:32]
E[-------------------------------------------------------]
B[----------------------88888888-12-12-12-12-12-12-12-12-]
G[-------------------------------------------------------]
D[-5555-5555-55555-777--99999999-12-12-12-12-12-12-12-12-]
A[-5555-5555-55555-777-77777777-10-10-10-10-10-10-10-10-]
D[-5555-5555-55555-777-----------------------------------]

E[-------------------------------------------------------]
B[-5555-5555-5554-4444--x--------------------------------]
G[----------------------x-99---9---99---9---9------------]
D[-5555-5555-4444-4444--x--------------------------------]
A[-3333-3333-2222-2222--x-77---7---77---7---7------------]
D[---------------------------9---9----9---9---9----------]

E[-------------------------------------------------------]
B[----------------------88888888-12-12-12-12-12-12-12-12-]
G[-------------------------------------------------------]
D[-5555-5555-55555-777--99999999-12-12-12-12-12-12-12-12-]
A[-5555-5555-55555-777-77777777-10-10-10-10-10-10-10-10-]
D[-5555-5555-55555-777-----------------------------------]

E[-------------------------------------------------------]
B[-5555-5555-5554-4444--x--------------------------------]
G[----------------------x-99---9---99---9---9------------]
D[-5555-5555-4444-4444--x--------------------------------]
A[-3333-3333-2222-2222--x-77---7---77---7---7------------]
D[---------------------------9---9----9---9---9----------]

Verse2 [1:00]
E[------------------------------------------------]
B[------------------------------------------------]
G[-12-12-12-12--8-8-------------------8-8-8-9-9-9-]	(3x)
D[------------------8-9--10-10-10-9-9-------------]
A[-10-10-10-10--6-6-6-6--10-10-10-9-9-6-6-6-7-7-7-]
D[-----------------------10-10-10-9-9-------------]

E[----------------------]
B[----------------------]
G[-12-12-12-12--8-8-----]	(2x)
D[------------------8-9-]
A[-10-10-10-10--6-6-6-6-]
D[----------------------]

Chorus2 [1:26]
E[-------------------------------------------------------]
B[----------------------88888888-12-12-12-12-12-12-12-12-]
G[-------------------------------------------------------]
D[-5555-5555-55555-777--99999999-12-12-12-12-12-12-12-12-]
A[-5555-5555-55555-777-77777777-10-10-10-10-10-10-10-10-]
D[-5555-5555-55555-777-----------------------------------]

E[-------------------------------------------------------]
B[-5555-5555-5554-4444--x--------------------------------]
G[----------------------x-99---9---99---9---9------------]
D[-5555-5555-4444-4444--x--------------------------------]
A[-3333-3333-2222-2222--x-77---7---77---7---7------------]
D[---------------------------9---9----9---9---9----------]
[ Tab from: http://www.guitaretab.com/b/blindside/67278.html ]
E[-------------------------------------------------------]
B[----------------------88888888-12-12-12-12-12-12-12-12-]
G[-------------------------------------------------------]
D[-5555-5555-55555-777--99999999-12-12-12-12-12-12-12-12-]
A[-5555-5555-55555-777-77777777-10-10-10-10-10-10-10-10-]
D[-5555-5555-55555-777-----------------------------------]

E[-------------------------------------------------------]
B[-5555-5555-5554-4444--x--------------------------------]
G[----------------------x-99---9---99---9---9------------]
D[-5555-5555-4444-4444--x--------------------------------]
A[-3333-3333-2222-2222--x-77---7---77---7---7------------]
D[---------------------------9---9----9---9---9----------]

Bridge [1:54]
HALF-TIME
E[---------------------]
B[-5555-5555-5554-4444-]
G[---------------------] 	(3x)
D[-5555-5555-4444-4444-]
A[-3333-3333-2222-2222]
D[---------------------]

E[---77--7--77--7--7---]
B[-x-------------------]
G[-x-44--4--44--4--4---]
D[-x-------------------]
A[-x----2--2---2--2--2-]
D[---------------------]

E[---------------------]
B[-5555-5555-5554-4444-]
G[---------------------] 	(3x)
D[-5555-5555-4444-4444-]
A[-3333-3333-2222-2222]
D[---------------------]

E[---77--7--77--7--7---]
B[-x-------------------]
G[-x-44--4--44--4--4---]
D[-x-------------------]
A[-x----2--2---2--2--2-]
D[---------------------]

Verse3 [2:22]
E[------------------------------------]
B[------------------------------------]
G[-8--4-------------------8-8-8-9-9-9-]	
D[-9---4-----10-10-10-9-9-------------]
A[-----------10-10-10-9-9-6-6-6-7-7-7-]
D[-----------10-10-10-9-9-------------]

E[------------------------------------]
B[-8--10------------------------------]
G[-9--11------------------8-8-8-9-9-9-]	
D[-----------10-10-10-9-9-------------]
A[-------12--10-10-10-9-9-6-6-6-7-7-7-]
D[-----------10-10-10-9-9-------------]

TACIT  / EFFECTS

Chorus3 [2:41]
E[-------------------------------------------------------]
B[----------------------88888888-12-12-12-12-12-12-12-12-]
G[-------------------------------------------------------]
D[-5555-5555-55555-777--99999999-12-12-12-12-12-12-12-12-]
A[-5555-5555-55555-777-77777777-10-10-10-10-10-10-10-10-]
D[-5555-5555-55555-777-----------------------------------]

E[-------------------------------------------------------]
B[-5555-5555-5554-4444--x--------------------------------]
G[----------------------x-99---9---99---9---9------------]
D[-5555-5555-4444-4444--x--------------------------------]
A[-3333-3333-2222-2222--x-77---7---77---7---7------------]
D[---------------------------9---9----9---9---9----------]

E[-------------------------------------------------------]
B[----------------------88888888-12-12-12-12-12-12-12-12-]
G[-------------------------------------------------------]
D[-5555-5555-55555-777--99999999-12-12-12-12-12-12-12-12-]
A[-5555-5555-55555-777-77777777-10-10-10-10-10-10-10-10-]
D[-5555-5555-55555-777-----------------------------------]

E[-------------------------------------------------------]
B[-5555-5555-5554-4444--x--------------------------------]
G[----------------------x-99---9---99---9---9------------]
D[-5555-5555-4444-4444--x--------------------------------]
A[-3333-3333-2222-2222--x-77---7---77---7---7------------]
D[---------------------------9---9----9---9---9----------]

Tag [3:09]
G[--------------8-8-8-9-9-9-9-9-9-]
D[-10-10-10-9-9-------------------]		(3x)
A[-10-10-10-9-9-6-6-6-7-7-7-7-7-7-]
D[-10-10-10-9-9-------------------]

G[--------------8-8-8-9-9-9-9-]
D[-10-10-10-9-9---------------]
A[-10-10-10-9-9-6-6-6-7-7-7-7-]
D[-10-10-10-9-9---------------]

Outro [3:28]
WITH DELAY
E[--------------]
B[--------------]
G[--5---9---3-2-]		(3x)
D[--------------]
A[--------------]
D[-7--10----5-4-]

E[--------------]
B[--------------]
G[-2------------]
D[--------------]
A[--------------]
D[-3------------]


Tab (c)2006 Robby Valderrama
www.celede.com
lovedbygsus@yahoo.com
Related for Fell In Love With The Game tab