Song name
# A B C D E F G H I J K L M N O P Q R S T U V W X Y Z

Blindside - We Are All Going To Die tab

Help us improve GuitareTab! Take a short survey!
Album: The Great Depression
Tabbed By: Brian Benzinger
Tuning: Drop D (D,A,D,G,B,E)

This song's pretty simple. This is my third tab I've done
off this album and this is only the first day I've had it 
so see what you think of it. Comments and ratings please.

~=hold out note

Intro (This isn't exact number of strums)
-|----------------|
-|----------------|
-|----------------|
-|-6-6--6-6-6-4-6-|
-|-6-6--6-6-6-4-6-|
-|-6-6--6-6-6-4-6-|

Verse 1 (3x)
-|---------------------------------------------------|
-|---------------------------------------------------|
-|---------------------------------------------------|
-|-6-6-6-6-6-4-6-6-6-4-6-6-6-6-4-4-6-6-6-4-4-6-6-4-4-|
-|-6-6-6-6-6-4-6-6-6-4-6-6-6-6-4-4-6-6-6-4-4-6-6-4-4-|
-|-6-6-6-6-6-4-6-6-6-4-6-6-6-6-4-4-6-6-6-4-4-6-6-4-4-|

Chorus Intro (2x)
-|-----------------------|
-|-----------------------|
-|-----------------------|
-|-3-1-3-6-3-4-4-4-4-4-4-|
-|-3-1-3-6-3-4-4-4-4-4-4-|
-|-3-1-3-6-3-4-4-4-4-4-4-|

Chorus
-|-----------------------------------|
-|-----------------------------------|
-|-----------------------------------|
-|-6-6-4-6-6-4-6-6-4-6-6-4-2-2-2-2-4-|
-|-6-6-4-6-6-4-6-6-4-6-6-4-2-2-2-2-4-|
-|-6-6-4-6-6-4-6-6-4-6-6-4-2-2-2-2-4-|

Verse 2 (3x)-Same as Verse 1

Chorus Intro

Chorus

Right after chorus he plays these notes- it was hard to tell
-|-----------------------------------------|
-|-----------------------------11-13-------|
-|-----------------------------------------|
-|----3-4-8-10------3-4-8-10---------3-4-8-|
-|-------------6-------------6-------------|
-|-3~------------3~------------------------|

Chorus/Ending 

See watcha think. The chords were easy, but the rhythm is pretty
weird. Also it seems like some of the notes he plays are harmonics
but it's hard to tell.
Related for We Are All Going To Die tab