Song name
# A B C D E F G H I J K L M N O P Q R S T U V W X Y Z

Blindside - Put Back The Stars tab

Album: The Great Depression
Tabbed By: Brian Benzinger
Tuning: Drop D (D,A,D,G,B,E)

/=slide
p=pull-off
h=hammer on
~=hold out note
^=bend to right pitch

Intro- quiet w/ hard dist.
-|-------------------------------------------------------------------|
-|-------------------------------------------------------------------|
-|-------------------------------------------------------------------|
-|-5-5-5-5-5-5-5-5-2-2-2-2-2-2-2-2-9-9-9-9-9-9-9-9-10-10-10-10-10-10-|
-|-5-5-5-5-5-5-5-5-2-2-2-2-2-2-2-2-9-9-9-9-9-9-9-9-10-10-10-10-10-10-|
-|-5-5-5-5-5-5-5-5-2-2-2-2-2-2-2-2-9-9-9-9-9-9-9-9-10-10-10-10-10-10-|

-----------------------|
-----------------------|
-----------------------|
-10-10-5-5-5-5-5-5-5-5-|
-10-10-5-5-5-5-5-5-5-5-|
-10-10-5-5-5-5-5-5-5-5-|

Verse 1- loud w/ hard dist.
-|---------------------------------------------------------|
-|---------------------------------------------------------|
-|---------------------------------------------------------|
-|-2-2-2-2-2-2-2-2-9-9-9-9-9-9-9-9-10-10-10-10-10-10-10-10-|
-|-2-2-2-2-2-2-2-2-9-9-9-9-9-9-9-9-10-10-10-10-10-10-10-10-|
-|-2-2-2-2-2-2-2-2-9-9-9-9-9-9-9-9-10-10-10-10-10-10-10-10-|

Verse 1 cont. (3x)
-|-------------------------------------------------------------------------|
-|-------------------------------------------------------------------------|
-|-------------------------------------------------------------------------|
-|-5-5-5-5-5-5-5-5-2-2-2-2-2-2-2-2-9-9-9-9-9-9-9-9-10-10-10-10-10-10-10-10-|
-|-5-5-5-5-5-5-5-5-2-2-2-2-2-2-2-2-9-9-9-9-9-9-9-9-10-10-10-10-10-10-10-10-|
-|-5-5-5-5-5-5-5-5-2-2-2-2-2-2-2-2-9-9-9-9-9-9-9-9-10-10-10-10-10-10-10-10-|

Chorus (3x)
-|------|
-|------|
-|------|
-|-0~4~-|
-|-0~4~-|
-|-0~4~-|

Verse 2 - Guitar 1 (5x)
-|-------------------------------------------------------------------------|
-|-------------------------------------------------------------------------|
-|-------------------------------------------------------------------------|
-|-5-5-5-5-5-5-5-5-2-2-2-2-2-2-2-2-9-9-9-9-9-9-9-9-10-10-10-10-10-10-10-10-|
-|-5-5-5-5-5-5-5-5-2-2-2-2-2-2-2-2-9-9-9-9-9-9-9-9-10-10-10-10-10-10-10-10-|
-|-5-5-5-5-5-5-5-5-2-2-2-2-2-2-2-2-9-9-9-9-9-9-9-9-10-10-10-10-10-10-10-10-|

Verse 2 - Guitar 2 (he plays through the entire verse but its hard to hear)
-|-------------------------------------------|
-|-5/7-7-7-9-9-7-7-8-8-8-8-8^----------------|
-|-------------------------------------------|
-|-------------------------------------------|
-|-------------------------------------------|
-|-------------------------------------------|

Chorus - Guitar 1 (3x)
-|------|
-|------|
-|------|
-|-0~4~-|
-|-0~4~-|
-|-0~4~-|

Chorus - Guitar 2
-|---------|
-|---------|
-|---------|
-|-7-9p7\6-|
-|---------|
-|---------|

Right after that then...
-|-------------------------------------------------------------------------|
-|-------------------------------------------------------------------------|
-|-------------------------------------------------------------------------|
-|-5-5-5-5-5-5-5-5-2-2-2-2-2-2-2-2-9-9-9-9-9-9-9-9-10-10-10-10-10-10-10-10-|
-|-5-5-5-5-5-5-5-5-2-2-2-2-2-2-2-2-9-9-9-9-9-9-9-9-10-10-10-10-10-10-10-10-|
-|-5-5-5-5-5-5-5-5-2-2-2-2-2-2-2-2-9-9-9-9-9-9-9-9-10-10-10-10-10-10-10-10-|

This isn't quite a verse but I'll call it Verse 3 (3x)
-|-------------------------------------|
-|-------------------------------------|
-|-------------------------------------|
-|-2-2-2-2-2-2-2-2-5-5-5-5-5/9-9/12-12-|
-|-2-2-2-2-2-2-2-2-5-5-5-5-5/9-9/12-12-|
-|-2-2-2-2-2-2-2-2-5-5-5-5-5/9-9/12-12-|

Then...
-|-------------------------------------------------------------------|
-|-------------------------------------------------------------------|
-|-------------------------------------------------------------------|
-|-2-2-2-2-2-2-2-2-5-5-5-5-5/9-9/12-12\10-10-10-10-10-10-10-10-10-10-|
-|-2-2-2-2-2-2-2-2-5-5-5-5-5/9-9/12-12\10-10-10-10-10-10-10-10-10-10-|
-|-2-2-2-2-2-2-2-2-5-5-5-5-5/9-9/12-12\10-10-10-10-10-10-10-10-10-10-|

Chorus - Guitar 1 (2x)          then...
-|------|                     -|--------|
-|------|                     -|--------|
-|------|                     -|--------|
-|-0~4~-|                     -|-0~4~/5-|
-|-0~4~-|                     -|-0~4~/5-|
-|-0~4~-|                     -|-0~4~/5-|

Chorus - Guitar 1 (3x)     Chorus - Guitar 2
-|------|                  -|----------------------------------------------|
-|------|                  -|----------------------------------------------|
-|------|                  -|----------------------------------------------|
-|-0~4~-|                  -|-16p14-11h12---------16p14-11h12--16p14-11h12-|
-|-0~4~-|                  -|-------------12p10-9--------------------------|
-|-0~4~-|                  -|----------------------------------------------|

Ending
-|----|
-|----|
-|----|
-|-0~-|
-|-0~-|
-|-0~-|
Tap to rate this tab
# A B C D E F G H I J K L M N O P Q R S T U V W X Y Z