Guitaretab - guitar tabs
Song name
# A B C D E F G H I J K L M N O P Q R S T U V W X Y Z

Blindside - You Must Be Bleeding Under Your Eyelids tab

You Must Be Bleeding Under Your Eyelids by Blindside

^ = bend
/ = slide down


DROP D TUNING (D A D G B E)


After first two lines:

e|-----------------------------------------------------------------------------------|
B|-----------------------------------------------------------------------------------|
G|-----------------------------------------------------------------------------------|
D|-----------------------------------------------------------------------------------|
A|----10-10-10-10-10-10-10-10--4-4-4-4-4-4-4-4-5-5-5-5-5-5-5-5-5-5-5-5-5-5-5-5-5-----|
D|-----------------------------------------------------------------------------------|


e|-----------------------------------------------------------------------------------|
B|-----------------------------------------------------------------------------------|
G|-----------------------------------------------------------------------------------|
D|-----------------------------------------------------------------------------------|
A|----10-10-10-10-10-10-10-10--4-4-4-4-4-4-4-4-5-5-5-5-5-5-5-5-5-7-7-8-8-12-12-/-----|
D|-----------------------------------------------------------------------------------|


e|-----------------------------------------------------------------------------------|
B|-----------------------------------------------------------------------------------|
G|-----------------------------------------------------------------------------------|
D|-----------------------------------------------------------------------------------|
A|----10-10-10-10-10-10-10-10--4-4-4-4-4-4-4-4-5-5-5-5-5-5-5-5-5-5-5-5-5-5-5-5-5-----|
D|-----------------------------------------------------------------------------------|


e|-----------------------------------------------------------------------------------|
B|-----------------------------------------------------------------------------------|
G|-----------------------------------------------------------------------------------|
D|-----------------------------------------------------------------------------------|
A|----10-10-10-10-10-10-10-10--4-4-4-4-4-4-4-4-5-5-5-5-5-5-5-5-5-7-7-8-8-12-12-/-----|
D|-----------------------------------------------------------------------------------|


e|-----------------------------------------------------------------------------------|
B|-----------------------------------------------------------------------------------|
G|-----------------------------------------------------------------------------------|
D|-----------------------------------------------------------------------------------|
A|----10-10-10-10-10-10-10-10--4-4-4-4-4-4-4-4-5-5-5-5-5-5-5-5-5-5-5-5-5-5-5-5-5-----|
D|-----------------------------------------------------------------------------------|


e|-----------------------------------------------------------------------------------|
B|-----------------------------------------------------------------------------------|
G|-----------------------------------------------------------------------------------|
D|-----------------------------------------------------------------------------------|
A|----10-10-10-10-10-10-10-10--4-4-4-4-4-4-4-4-5-5-5-5-5-5-5-5-5-7-7-8-8-12-12-/-----|
D|-----------------------------------------------------------------------------------|

e|-----------------------------------------------------------------------------------|
B|-----------------------------------------------------------------------------------|
G|-----------------------------------------------------------------------------------|
D|---------------------------------------------------------------7-7-7-7-7^-7^-7---4-|
A|----10-10-10-10-10-10-10-10--4-4-4-4-4-4-4-4-5-5-5-5-5-5-5-5-5-------------------0-|
D|---------------------------------------------------------------------------------0-|

Chorus


e|-----------------------------------------------------------------------------------|
B|-----------------------------------------------------------------------------------|
G|---------------------------------------------------------------6-6-6-6-6^-6^-6-----|
D|----0--0--0--4--4--5--7-7-7-7-7^-7^-7---4--0--0--0--5-5-5-5-8----------------------|
A|----0--0--0--4--4--5--------------------0--0--0--0--5-5-5-5-8----------------------|
D|----0--0--0--4--4--5--------------------0--0--0--0--5-5-5-5-8----------------------|


e|-----------------------------------------------------------------------------------|
B|-----------------------------------------------------------------------------------|
G|---------------------------------------------------------------6-6-6-6-6^-6^-6-----|
D|----0--0--0--4--4--5--7-7-7-7-7^-7^-7---4--0--0--0--5-5-5-5-8----------------------|
A|----0--0--0--4--4--5--------------------0--0--0--0--5-5-5-5-8----------------------|
D|----0--0--0--4--4--5--------------------0--0--0--0--5-5-5-5-8----------------------|


e|-----------------------------------------------------------------------------------|
B|----3--hold----/2------------------------------------------------------------------|
G|-----------------------------------------------------------------------------------|
D|-----------------------------------------------------------------------------------|
A|-----------------------------------------------------------------------------------|
D|-----------------------------------------------------------------------------------|


Verse


e|-----------------------------------------------------------------------------------|
B|-----------------------------------------------------------------------------------|
G|-----------------------------------------------------------------------------------|
D|-----------------------------------------------------------------------------------|
A|----10-10-10-10-10-10-10-10--4-4-4-4-4-4-4-4-5-5-5-5-5-5-5-5-5-7-7-8-8-12-12-/-----|
D|-----------------------------------------------------------------------------------|



e|-----------------------------------------------------------------------------------|
B|-----------------------------------------------------------------------------------|
G|-----------------------------------------------------------------------------------|
D|---------------------------------------------------------------7-7-7-7-7^-7^-7---4-|
A|----10-10-10-10-10-10-10-10--4-4-4-4-4-4-4-4-5-5-5-5-5-5-5-5-5-------------------0-|
D|---------------------------------------------------------------------------------0-|


Chorus


e|-----------------------------------------------------------------------------------|
B|-----------------------------------------------------------------------------------|
G|---------------------------------------------------------------6-6-6-6-6^-6^-6-----|
D|----0--0--0--4--4--5--7-7-7-7-7^-7^-7---4--0--0--0--5-5-5-5-8----------------------|
A|----0--0--0--4--4--5--------------------0--0--0--0--5-5-5-5-8----------------------|
D|----0--0--0--4--4--5--------------------0--0--0--0--5-5-5-5-8----------------------|

[ Tab from: http://www.guitaretab.com/b/blindside/74751.html ]
e|-----------------------------------------------------------------------------------|
B|-----------------------------------------------------------------------------------|
G|---------------------------------------------------------------6-6-6-6-6^-6^-6-----|
D|----0--0--0--4--4--5--7-7-7-7-7^-7^-7---4--0--0--0--5-5-5-5-8----------------------|
A|----0--0--0--4--4--5--------------------0--0--0--0--5-5-5-5-8----------------------|
D|----0--0--0--4--4--5--------------------0--0--0--0--5-5-5-5-8----------------------|


Bridge


e|-----------------------------------------------------------------------------------|
B|-----------------(x16)--------------------(x8)----------------------------------------------|
G|-----------------------------------------------------------------------------------|
D|----7-7-7-7-7-7-7-7-7-7-7-7-7-7-7-7-8-8-8-8-8-8-8-8---0--0--0--0--0--0-------------|
A|----7-7-7-7-7-7-7-7-7-7-7-7-7-7-7-7-8-8-8-8-8-8-8-8---0--0--0--0--0--0-------------|
D|----7-7-7-7-7-7-7-7-7-7-7-7-7-7-7-7-8-8-8-8-8-8-8-8---0--0--0--0--0--0-------------|
                                                         ^fade on volume^

e|-----------------------------------------------------------------------------------|
B|-----------------(x16)--------------------(x8)----------------------------------------------|
G|-----------------------------------------------------------------------------------|
D|----7-7-7-7-7-7-7-7-7-7-7-7-7-7-7-7-8-8-8-8-8-8-8-8---0--0--0--0--0--0-------------|
A|----7-7-7-7-7-7-7-7-7-7-7-7-7-7-7-7-8-8-8-8-8-8-8-8---0--0--0--0--0--0-------------|
D|----7-7-7-7-7-7-7-7-7-7-7-7-7-7-7-7-8-8-8-8-8-8-8-8---0--0--0--0--0--0-------------|
                                                         ^fade on volume^

e|-----------------------------------------------------------------------------------|
B|-----------------(x16)---------------------------(x16)-----------------------------|
G|-----------------------------------------------------------------------------------|
D|----7-7-7-7-7-7-7-7-7-7-7-7-7-7-7-7-8-8-8-8-8-8-8-8-8-8-8-8-8-8-8-8-10-10-10-10----|
A|----7-7-7-7-7-7-7-7-7-7-7-7-7-7-7-7-8-8-8-8-8-8-8-8-8-8-8-8-8-8-8-8-10-10-10-10----|
D|----7-7-7-7-7-7-7-7-7-7-7-7-7-7-7-7-8-8-8-8-8-8-8-8-8-8-8-8-8-8-8-8-10-10-10-10----|
      ^PALM MUTED......................................................^

e|-----------------------------------------------------------------------------------|
B|-------------(x16)-------------------------------------(x16)-----------------------|
G|-----------------------------------------------------------------------------------|
D|----10-10-10-10-10-10-10-10-10-10-10-10-11-11-11-11-11-11-11-11-11-11-11-11-11-11--|
A|----10-10-10-10-10-10-10-10-10-10-10-10-11-11-11-11-11-11-11-11-11-11-11-11-11-11--|
D|----10-10-10-10-10-10-10-10-10-10-10-10-11-11-11-11-11-11-11-11-11-11-11-11-11-11--|


e|-----------------------------------------------------------------------------------|
B|-------------------------------------------------(x28)-----------------------------|
G|-----------------------------------------------------------------------------------|
D|----11-11----0--0--0--0--0--0--0--0--0--0--0--0--0--0--0--0--0--0--0--0--0--0--0--0|
A|----11-11----0--0--0--0--0--0--0--0--0--0--0--0--0--0--0--0--0--0--0--0--0--0--0--0|
D|----11-11----0--0--0--0--0--0--0--0--0--0--0--0--0--0--0--0--0--0--0--0--0--0--0--0|


e|-----------------------------------------------------------------------------------|
B|-----------------------------------------------------------------------------------|
G|-----------------------------------------------------------------------------------|
D|----0--0--0--0--7-7-7-7-7^-7^-7----REST--------------------------------------------|
A|----0--0--0--0---------------------------------------------------------------------|
D|----0--0--0--0---------------------------------------------4---------------5-------|


e|-----------------------------------------------------------------------------------|
B|-----------------------------------------------------------------------------------|
G|------------------------------------------------------------6-6-6-6-6^-6^-6--------|
D|----7-7-7-7-7^-7^-7-4--------------------------------------------------------------|
A|-----------------------------------------------------------------------------------|
D|-----------------------------------------5-------------8---------------------------|
        ^softly^

Chorus


e|-----------------------------------------------------------------------------------|
B|-----------------------------------------------------------------------------------|
G|---------------------------------------------------------------6-6-6-6-6^-6^-6-----|
D|----0--0--0--4--4--5--7-7-7-7-7^-7^-7---4--0--0--0--5-5-5-5-8----------------------|
A|----0--0--0--4--4--5--------------------0--0--0--0--5-5-5-5-8----------------------|
D|----0--0--0--4--4--5--------------------0--0--0--0--5-5-5-5-8----------------------|


e|-----------------------------------------------------------------------------------|
B|-----------------------------------------------------------------------------------|
G|---------------------------------------------------------------6-6-6-6-6^-6^-6-----|
D|----0--0--0--4-4-4-4-5--7-7-7-7-7^-7^-7---4--0--0--0--5-5-5-5-8--------------------|
A|----0--0--0--4-4-4-4-5--------------------0--0--0--0--5-5-5-5-8--------------------|
D|----0--0--0--4-4-4-4-5--------------------0--0--0--0--5-5-5-5-8--------------------|



e|-----------------------------------------------------------------------------------|
B|-----------------------------------------------------------------------------------|
G|---------------------------------------------------------------6-6-6-6-6^-6^-6-----|
D|----0-0-0--0--4-4-4-4-5--7-7-7-7-7^-7^-7---4--0--0--0--5-5-5-5-8-------------------|
A|----0-0-0--0--4-4-4-4-5--------------------0--0--0--0--5-5-5-5-8-------------------|
D|----0-0-0--0--4-4-4-4-5--------------------0--0--0--0--5-5-5-5-8-------------------|



e|-----------------------------------------------------------------------------------|
B|-----------------------------------------------------------------------------------|
G|---------------------------------------------------------------6-6-6-6-6^-6^-6-----|
D|----0--0--0--4-4-4-4-5--7-7-7-7-7^-7^-7---4--0--0--0--5-5-5-5-8--------------------|
A|----0--0--0--4-4-4-4-5--------------------0--0--0--0--5-5-5-5-8--------------------|
D|----0--0--0--4-4-4-4-5--------------------0--0--0--0--5-5-5-5-8--------------------|



e|-----------------------------------------------------------------------------------|
B|-----------------------------------------------------------------------------------|
G|---------------------------------------------------------------6-6-6-6-6^-6^-6-----|
D|----0--0--0--4-4-4-4-5--7-7-7-7-7^-7^-7---4--0--0--0--5-5-5-5-8--------------------|
A|----0--0--0--4-4-4-4-5--------------------0--0--0--0--5-5-5-5-8--------------------|
D|----0--0--0--4-4-4-4-5--------------------0--0--0--0--5-5-5-5-8--------------------|


e|-----------------------------------------------------------------------------------|
B|-----------------------------------------------------------------------------------|
G|-----------------------------------------------------------------------------------|
D|----0----let ring------------------------------------------------------------------|
A|----0------------------------------------------------------------------------------|
D|----0------------------------------------------------------------------------------|
Related for You Must Be Bleeding Under Your Eyelids tab