Song name
# A B C D E F G H I J K L M N O P Q R S T U V W X Y Z

Blindside - When I Remember tab

Album: The Great Depression
Tabbed by: Brian Benzinger
Tuning: Drop D

I couldn't find the cool guitar solo for
this song and i liked it a lot, so I just
figured it out myself :)  enjoy!

Fast notes!
-|---------------------------------------------------------------------------|
-|---------------------------------------------------------------------------|
-|---------------------------------------------------------------------------|
-|-8-8-8-8-8-8-8-8-9-11-11-11-11-11-11-11-11-6-6-6-6-6-6---------------------|
-|-------------------------------------------------------2-2-2-2-2-2-1-4-4-4-|
-|---------------------------------------------------------------------------|

-------|
-------|
-------|
-------|
-4-4-4-|
-------|

-|---------------------------------------------------------------------------|
-|---------------------------------------------------------------------------|
-|---------------------------------------------------------------------------|
-|-8-8-8-8-8-8-8-8-9-11-11-11-11-11-11-11-11-6-6-6-6-6-6---------------------|
-|-------------------------------------------------------2-2-2-2-2-2-1-4-4-4-|
-|---------------------------------------------------------------------------|

-------------------|
-------------------|
-------------------|
-------------------|
-4-4-4-5-5-5-5-5-5-|
-------------------|

-|---------------------------------------------------------------------------|
-|---------------------------------------------------------------------------|
-|---------------------------------------------------------------------------|
-|-8-8-8-8-8-8-8-8-9-11-11-11-11-11-11-11-11-6-6-6-6-6-6---------------------|
-|-------------------------------------------------------2-2-2-2-2-2-1-4-4-4-|
-|---------------------------------------------------------------------------|

--------|
--------|
--------|
--------|
-4-4-4--|
--------|

-|---------------------------------------------------------------------------|
-|---------------------------------------------------------------------------|
-|---------------------------------------------------------------------------|
-|-8-8-8-8-8-8-8-8-9-11-11-11-11-11-11-11-11-6-6-6-6-6-6---------------------|
-|-------------------------------------------------------2-2-2-2-2-2-1-4-4-4-|
-|---------------------------------------------------------------------------|

-------|
-------|
-------|
-------|
-4-4-4-|
-------|

-|---------------------------------------------------------------------------|
-|---------------------------------------------------------------------------|
-|---------------------------------------------------------------------------|
-|-6-6-6-6-6-6-6-6-6-6-5-5-5-5-5-5-5-5-5-5-5-5-5-5-8-8-8-8-8-8-8-8-8-8-9-9-9-|
-|---------------------------------------------------------------------------|
-|---------------------------------------------------------------------------|

-----------------------------------------------|
-----------------------------------------------|
-----------------------------------------------|
-9-9-9-9-9-9-9-9-9-9-9-8-8-8-8-8-8-8-8-8-8-8-8-|
-----------------------------------------------|
-----------------------------------------------|
Tap to rate this tab
 
# A B C D E F G H I J K L M N O P Q R S T U V W X Y Z